Junior Senior - Move Your Feet Chords & Tabs

 

Move Your Feet Chords & Tabs

Junior Senior Chords & Tabs

Version: 1 Type: Tab 0 ratings
1 star 2 stars 3 stars 4 stars 5 stars
comments

Move Your Feet Tab

Junior Senior - Move your feet 
[ Tab from: http://www.guitartabs.cc/tabs/j/junior_senior/move_your_feet_tab.html ]
Intro
e|--------------------------------------------------------------------------|
B|--5-----------------------------------------------------------------------|
G|-----5-4------------------------------------------------------------------|
D|-----------5--------------------------------------------------------------|
A|--------------------------------------------------------------------------|
E|--------------------------------------------------------------------------|
Verse
e|--------------------------------------------------------------------------|
B|--------------------------------------------------------------------------|
G|--14--14----12----12------------------------------------------------------|
D|--14--14----12----12------------------------------------------------------|
A|--12--12----10----10------------------------------------------------------|
E|--------------------------------------------------------------------------|
Chorus
e|--------------------------------------------------------------------------|
B|--------------------------------------------------------------------------|
G|--7--9-------9------------------------------------------------------------|
D|--7--9---7---9------------------------------------------------------------|
A|--5--7---7---7------------------------------------------------------------|
E|---------5----------------------------------------------------------------|
Comments