Jump Little Children - Mexico Chords & Tabs

 

Mexico Chords & Tabs

Jump Little Children Chords & Tabs

Version: 1 Type: Tab

Mexico Tab

not a fan of them but i heard this song an liked it so here it is
[ Tab from: http://www.guitartabs.cc/tabs/j/jump_little_children/mexico_tab.html ]
verse:
--0----0---0---0--------| then repeat
--0----0---0---0--------|
--1----2---1------------|
--2----2---2------------|
--2--------2---2--------|
------------------------|

chorus:                  em back to verse
--x--0---0---0--0--0--0--0---|
--x--0---0---0--0--0--0--0---|
--2--1---4---6--2--1--4--1---|
--2--2---4---6--2--2--4--2---|
-----2---2---4-----2--2--2---|
-----------------------------|