July Productions - In Your Eyes Chords & Tabs

 

In Your Eyes Chords & Tabs

July Productions Chords & Tabs

Version: 1 Type: Tab 0 ratings
1 star 2 stars 3 stars 4 stars 5 stars
comments

In Your Eyes Tab

"In Your Eyes"
Performed by July Productions
>From the album available at www.julyproductions.com
Music by: M. July
Lyrics by: M. July
(c) 2002 July Productions
----------
Tabbed by Michael July 

Tab key:

h     hammer on
p     pull off
/     slide
b     bend=20
P.M.  Palm Mute

Riff 1 (w/Light Distortion & Delay):
=

  =20
e:--------------------
B:--------------------
D:--------------------
G:--2--2--4--2--2--2--
A:--2--2--5--3--3--0--
E:--------------------

Riff 2 (Acoustic):
=

 =20
e:-------0------------------0-------------------3---------------3--
B:-----3---3--------------3---3---------------3---3-----------3----
D:---0-------0-----0----0-------0-----------0-------0-------0------
G:-2------------4-----2-----------4-------2-----------2---2--------
A:----------------------------------5/3-3---------------3----------
E:-----------------------------------------------------------------

Riff 1 (Acoustic & Electric):
=

  =20
e:----------------------------------------
B:----------------------------------------
D:----------------------------------------
G:-----2--2------0-----9--9-9-9--9-9-9----
A:-----2--2----4---4---7--7-7-7--7-7-7//--
E:-9//-0--0--2-------2/5--5-5-5--5-5-5----

Chorus 1 (w/Distortion):
=
[ Tab from: http://www.guitartabs.cc/tabs/j/july_productions/in_your_eyes_tab.html ]
  =20
e:-----------------------------------------
B:-----------------------------------------
D:--9-9-------7-7-------4-4--4/7--7-7--7---
G:--9-9--5-4--7-7--5-4--4-4--4/7--7-7--7---
A:--7-7-------5-5-------3-3--3/5--5-5--5---
E:--7-7-------5-5-------3-3--3/5--5-5--5---

Chorus 2 (w/Distortion):
=

   |P.M.|     |- P.M. -|      |- P.M.-|      |-P.M.-|
e:-----------------------------------------------------------
B:-----------------------------------------------------------
D:--9-9---9---9-9---7-7---7---7-7--5-5---5---5-5--5-5---5-7--
G:--9-9---9---9-9---7-7---7---7-7--5-5---5---5-5--5-5---5-7--
A:--7-7---7---7-7---5-5---5---5-5--3-3---3---3-3--3-3---3-5--
E:--7-7---7---7-7---5-5---5---5-5--3-3---3---3-3--3-3---3-5--

Verse 1 (Acoustic)

e:--0--0---0--0-0--0--0--0---0----0--0----3--3--3--3-3-3--3--3--3--3-3-3-=
B:--0--0h3-3--3-3--3--0--0h3-3----3--3----3--3--3--3-3-3--3--3--3--3-3-3-=
D:--0--0---0--0-0--0--0--0---0----0--0----0--0--0--0-0-0--0--0--0--0-0-0-=
G:--2--2---2--2-2--2--2--2---2----4--4----2--2--2--2-2-2--2--2--2--2-2-2-=
A:--2--2---2--2-2--2--2--2---2----5--5----3--3--3--3-3-3--3--3--3--3-3-3-=
E:--0--0---0--0-0--0--0--0---0----0--0-----------------------------------=

Solo (w/Reverb)

e:---------------------------------------------------------------
B:-----------12------10--10h12p10--------------------------------
D:--------------12----------------12---11-11h12p11---------------
G:--------12---------------------------------------12---9--9/12--
A:--10h12--------------------------------------------------------
E:---------------------------------------------------------------
Comments