Juliet The Orange - Eyelash Chords & Tabs

 

Eyelash Chords & Tabs

Juliet The Orange Chords & Tabs

Version: 1 Type: Tab 0 ratings
1 star 2 stars 3 stars 4 stars 5 stars
comments

Eyelash Tab

   
##################################################################################
# This file is the author's own work and represents their interpretation of the  #
# song. You may only use this file for private study, scholarship, or research.  #
##################################################################################

Song : Eyelash
Band : Juliet The Orange
Tabbed By : Zar A-Qusyairi (qusyairi86@yahoo.com)


Standard Tuning!!


[Intro] G - Dsus - Em/D - Cadd9

e|------3-----3-------3-----2-3-------3-----3---3~----|----2--0-----------|
B|------3-----3-------3-----3-3-------3-----3---3~----|----------3~-------|
G|------0-----0---2-2-2-2-2-------0-0-0-0-0-0---0~----|-------------------|
D|--0-0---0-0-----0-0---0-0-------2-2---2-2-----2~----|-------------------|
A|--2-2---2-2-----0-0---0-0-------2-2---2-2-----3~----|-------------------|
E|--3-3---3-3-----------------------------------------|-------------------|


[Verse1] G - Dsus - Em/D - Cadd9

e|--3---3---3---3-----3---3---3---3-----3---3---3---3------3---3---3---3--|
B|------------------------------------------------------------------------|
G|------------------------------------------------------------------------| x2
D|---------------------0---0---0---0--------------------------------------|
A|---------------------------------------2---2---2---2------3---3---3---3-|
E|---3---3---3---3--------------------------------------------------------|


[Pre-Chorus] G - Dsus - Em/D - Cadd9

e|------3-----3-------2-----2-3-------3-----3---3~----|----2--0-----------|
B|------3-----3-------3-----3-3-------3-----3---3~----|----------3~-------|
G|------0-----0---2-2-2-2-2-------0-0-0-0-0-0---0~----|-------------------| x2
D|--0-0---0-0-----0-0---0-0-------2-2---2-2-----2~----|-------------------|
A|--2-2---2-2-----0-0---0-0-------2-2---2-2-----3~----|-------------------|
E|--3-3---3-3-----------------------------------------|-------------------|


[Verse2] G - Dsus - Em/D - Cadd9

e|--3---3---3---3-----3---3---3---3-----3---3---3---3------3---3---3---3---|
B|-------------------------------------------------------------------------|
G|-------------------------------------------------------------------------| 
D|---------------------0---0---0---0---------------------------------------|
A|---------------------------------------2---2---2---2------3---3---3---3--|
E|---3---3---3---3---------------------------------------------------------|


[Pre-Chorus] G - Dsus - Em/D - Cadd9
[ Tab from: http://www.guitartabs.cc/tabs/j/juliet_the_orange/eyelash_tab.html ]
e|------3-----3-------2-----2-3-------3-----3---3~----|---2--0-----|-2--0~-|
B|------3-----3-------3-----3-3-------3-----3---3~----|---------3~-|-------|
G|------0-----0---2-2-2-2-2-------0-0-0-0-0-0---0~----|------------|-------| 2x
D|--0-0---0-0-----0-0---0-0-------2-2---2-2-----2~----|------------|-------|
A|--2-2---2-2-----0-0---0-0-------2-2---2-2-----3~----|------------|-------|
E|--3-3---3-3-----------------------------------------|------------|-------|



[Chorus] G - D - Am - Em - C - D - C - D (2x), Em..
    
e|--3-3----3-3----0-0----0-0----0-0----2-2----0-0----2-2------------|--0---|
B|--3-3----2-2----1-1----0-0----1-1----3-3----1-1----3-3------------|--0---|
G|--0-0----3-3----2-2----0-0----0-0----2-2----0-0----2-2------2x----|--0---| 
D|--0-0----0-0----2-2----2-2----2-2----0-0----2-2----0-0------------|--2---|
A|--2-2----0-0----0-0----2-2----3-3----0-0----3-3----0-0------------|--2---|
E|--3-3----0-0----0-0----0-0----0-0----0-0----0-0----0-0------------|--0---|


[Verse3] G - Dsus - Em/D - Cadd9

(Repeat Pre-Chorus & Chorus)


[Bridge] G - F#/D - Em/D - Cadd9

(Guitar1)
e|--3-3----3-3----3-3----3-3----------------|
B|--3-3----3-3----3-3----3-3----------------|
G|--0-0----0-0----0-0----2-2----------2x----|
D|--0-0----0-0----2-2----0-0----------------|
A|--2-2----0-0----2-2----0-0----------------|
E|--3-3----2-2----0-0----0-0----------------|

(Guitar2)
e|------3-----3-------3-----2-3-------3-----3---3~----|----2--0-----|-2--0~-|
B|------3-----3-------3-----3-3-------3-----3---3~----|----------3~-|-------|
G|------0-----0---2-2-2-2-2-------0-0-0-0-0-0---0~----|-------------|-------| 2x
D|--0-0---0-0-----0-0---0-0-------2-2---2-2-----2~----|-------------|-------|
A|--2-2---2-2-----0-0---0-0-------2-2---2-2-----3~----|-------------|-------|
E|--3-3---3-3-----------------------------------------|-------------|-------|

To me....to me....~


[Outro]

e|--3---3---3---3-----3---3---3---3-----3---3---3---3------3---3---3---3--|
B|------------------------------------------------------------------------|
G|------------------------------------------------------------------------| 
D|---------------------0---0---0---0--------------------------------------|
A|---------------------------------------2---2---2---2------3---3---3---3-|
E|---3---3---3---3--------------------------------------------------------|


e|--3---3---3---3-------2~-----0~-------0~--------------------------------|
B|----------------------3~-----0~-------1~--------------------------------|
G|----------------------2~-----0~-------0~--------------------------------| 
D|----------------------0~-----2~-------2~--------------------------------|
A|----------------------0~-----2~-------3~--------------------------------|
E|---3---3---3---3------0~-----0~-------0~--------------------------------|
Comments