Julien-k - This Machine Chords & Tabs

 

This Machine Chords & Tabs

Julien-k Chords & Tabs

Version: 1 Type: Tab

This Machine Tab

Intro & Chorus-
e---------------------------------------|
B---------------------------------------|
G--4--------7--------9--------12--------|
D--4--------7--------9--------12--------|
A--2--------5--------7--------10--------|
E--2-(X8)---5-(X8)---7-(X8)---10-(X8)---|
[ Tab from: http://www.guitartabs.cc/tabs/j/julien_k/this_machine_tab.html ]
e---------------------------------------|
B---------------------------------------|
G--4------9-7--------5------------------|
D--4------9-7--------5------------------|
A--2------7-5--------3------------------|
E--2-(X6)-7-5-(X8)---3-(X16)------------|

Bridge-
e---------------------------------------|
B---------------------------------------|
G--9--4--9--4--5-----9--4--9--4--5------|
D--9--4--9--4--5-----9--4--9--4--5------|
A--7--2--7--2--3-----7--2--7--2--3------|
E--7--2--7--2--3-----7--2--7--2--3------|
 Visit Julien-K's site at http://www.julien-k.com/