Julie Delpy - A Waltz For A Night (proper Tabs) Chords & Tabs

 

A Waltz For A Night (proper Tabs) Chords & Tabs

Julie Delpy Chords & Tabs

Version: 1 Type: Tab 2 ratings
1 star 2 stars 3 stars 4 stars 5 stars
comments

A Waltz For A Night (proper Tabs) Tab

   
Artist: Julie Delpy
Song: A Waltz For a Night
From the movie: Before Sunset (2004)

Tabbed from right out of the movie nucka.
tabbed propper by J. Preston

Everything not noted is played as the verse. 
Otherwise just the one line below the noted 
bridge is played as the bridge once, unless 
otherwise noted

verse
E|---3-3-|---2-2-|---0-0-|---2-2-|
B|---0-0-|---0-0-|---0-0-|---0-0-|
G|-------|-------|-------|-------|
D|-------|-------|-------|-------|
A|-------|-------|-------|-------|
E|-3-----|-2-----|-0-----|-2-----|


Change/Bridge A
E|-----5-|-----4-|-----3-|-----4-|
B|-----5-|-----5-|-----5-|-----5-|
G|-----5-|-----5-|-----5-|-----5-|
D|-------|-------|-------|-------|
A|-------|-------|-------|-------|
E|-5-----|-4-----|-3-----|-4-----|

Bridge B
E|-----5-|-----4-|-----3-|-----2-|
B|-----5-|-----5-|-----5-|-----3-|
G|-----5-|-----5-|-----5-|-----2-|
D|-------|-------|-------|-------|
A|-------|-------|-------|-0-----|
E|-5-----|-4-----|-3-----|-------|




[ Tab from: http://www.guitartabs.cc/tabs/j/julie_delpy/a_waltz_for_a_night_proper_tabs_tab.html ]
#verse-> play a few times before words start
Let me sing you a waltz 
Out of nowhere, out of my thoughts 
Let me sing you a waltz 
About this one-night stand 

#bridge B chords
You were for me that night 
#verse
Everything I always dreamt of in life 
But now you're gone 
You are far gone 
All the way to your island of rain 

#bridge b chords
It was for you just a one night thing 
#Verse
But you were much more to me 
Just so you know 


I don't care what they say 
I know what you meant for me that day 
#bridge A
I just wanted another try 
#bridge 
I just wanted another night 
#verse
Even if it doesn't seem quite right 
You meant for me much more 
Than anyone I've met before 

#bridge B
One single night with you little Jesse 
#verse
Is worth a thousand with anybody 

I have no bitterness, my sweet 
I'll never forget this one night thing 
#bridge B
Even tomorrow, another arms 
#verse
My heart will stay yours until I die 

Let me sing you a waltz 
Out of nowhere, out of my blues 
Let me sing you a waltz 
About this lovely one night stand
#continue playing verse a few times after words are done
#then throw on a nina simone album and you are solid....

comments, questions, or interesting ramblings to jsp28@drexel.edu
copyright your moms box 2005
Comments