Julia - Beautiful Chords & Tabs

 

Beautiful Chords & Tabs

Julia Chords & Tabs

Version: 1 Type: Tab

Beautiful Tab

   
Beautiful

Tuning: Es
        Bb
        F#
        C#
        G#
        C#

....... = Palm Mute


Rhythm Fill 1 (4x)

Es|--------------------------------------------------------------------------|
Bb|--------------------------------------------------------------------------|
F#|--------------------------------------------------------------------------|
C#|--9----9----9----9-----12----12----12----12---7---7---7---7---7---7---7-8-|
G#|-7----7----7----7----10----10----10----10----5---5---5---5---5---5---5--6-|
C#|--------------------------------------------------------------------------|
     .......................................................................

Chorus (4x)

Es|-----------------------------------------------------------------------|
Bb|-----------------------------------------------------------------------|
F#|-----------------------------------------7-7---7-----------------------|
C#|------2-2-2-2-2--------5-5-5-5-5---------7-7---7-----------------------|
G#|------2-2-2-2-2--------5-5-5-5-5---------5-5---5-----------------------|
C#|------2-2-2-2-2--------5-5-5-5-5---------------------------------------|
                                            . .         (4x)

Post Chorus
Es|-------------------------------------------------------------------------|
Bb|-------------------------------------------------------------------------|
F#|------4---4------7---7---------------------------------------------------|
C#|------4---4------7---7------777777777777777777777777---------------------|
G#|------2---2------5---5------777777777777777777777777---------------------|
C#|----------------------------777777777777777777777777---------------------|
[ Tab from: http://www.guitartabs.cc/tabs/j/julia/beautiful_tab.html ]
Es|-------------------------------------------------------------------------|
Bb|-------------------------------------------------------------------------|
F#|------44444444------77777777---------------------------------------------|
C#|------44444444------77777777---7-7--7---7-7--7---5-----------------------|
G#|------22222222------55555555---7-7--7---7-7--7---5-----------------------|
C#|-------------------------------7-7--7---7-7--7---5-----------------------|
                                  . .      . .
Es|-------------------------------------------------------------------------|
Bb|-------------------------------------------------------------------------|
F#|------44444444----77777777-----------------------------------------------|
C#|------44444444----77777777--7-7--7---7-7--7---7-7--7---7-7--7------------|
G#|------22222222----55555555--7-7--7---7-7--7---7-7--7---7-7--7------------|
C#|----------------------------7-7--7---7-7--7---7-7--7---7-7--7------------|
                               . .      . .      . .      . .
Es|--------------------------------------------------------------------------|
Bb|--------------------------------------------------------------------------|
F#|------4444------7777------------------------------------------------------|
C#|------4444------7777--------7777777-5-------------------------------------|
G#|------2222------5555--------7777777-5-------------------------------------|
C#|----------------------------7777777-5-------------------------------------|

Rhythm Fill 1 (6x)
Chorus (4x)
Post Chorus

Midtro(4x)


Es|-------------------------------------------------------------------------|
Bb|-------------------------------------------------------------------------|
F#|-------------------------------------------------------------------------|
C#|----12----12----12----12----12----12----12----12---7---7---7---7---7---7-|
G#|--10----10----10----10----12----12----12----12----9---9---9---9---9---9--|
C#|-------------------------------------------------------------------------|
     .......................................................................

Es|--------------------------------------------------------------------------|
Bb|--------------------------------------------------------------------------|
F#|--------------------------------------------------------------------------|
C#|--5-7-5-7-5-7-5-7-5-7-5-7-5-7-5-7--4-5-4-5-4-5-4-5-4-5-4-5-4-5-4-5--------|(4x)
G#|--------------------------------------------------------------------------|
C#|--------------------------------------------------------------------------|

Breakout(4x)

Es|-------------------------------------------------------------------------|
Bb|-------------------------------------------------------------------------|
F#|-------------------------------------------------------------------------|
C#|------2--2----4-5-5---------0-0-0---7-7----------------------------------|
G#|------2--2----4-5-5---------0-0-0---7-7----------------------------------|
C#|------2--2----4-5-5---------0-0-0---7-7----------------------------------|


Post Chorus (let last chord ring out)