Jules Gary - Mad World Chords & Tabs

 

Mad World Chords & Tabs

Jules Gary Chords & Tabs

Version: 1 Type: Tab 1 rating
1 star 2 stars 3 stars 4 stars 5 stars
comments

Mad World Tab

   
-==========================================-
 Gary Jules ft. Michael Andrews - Mad World
-==========================================-

Artist		-	Gary Jules ft. Michael Andrews
Song		-	Mad World
Tabbed By	-	Clayton Botha
e-Mail		-	theno69@hotmail.com
Tuning		-	Standard (Capo on 1)
Notes		-	I've tabbed this for guitar with a capo on 1, 
			Try follow the notes carefully with the capo
			eg. If I've written a 5 then its 5 notes from
			The capo not the nut ie. You play fret 6 ect.
			ENJOY! :)

 -=Intro=- (Em A)
e||----------------------------------------||
B||---0----0----5----5----0----0----5----5-||
G||---0----0----6----6----0----0----6----6-||: Guitar-1
D||-2----2----7----7----2----2----7----7---||
A||----------------------------------------||
E||----------------------------------------||

 -=Intro=-
e||---7----------------------7-----------5-||
B||-8---7-8-5-7------------8---7-8-5-7-8---||
G||-------------7-6------------------------||: Guitar-2
D||-----------------7~~~~~-----------------||
A||----------------------------------------||
E||----------------------------------------||


 -=Verse=- (Em G D A)
e||----------------------------------------||
B||---0----0----3----3--------------5----5-||
G||---0----0----4----4----2----2----6----6-||
D||-2----2----5----5------4----4--7----7---||
A||---------------------5----5-------------||
E||----------------------------------------||

[ Tab from: http://www.guitartabs.cc/tabs/j/jules_gary/mad_world_tab.html ]
 -=Chorus=- (Em A)
e||----------------------------------------||
B||---0----0----5----5----0----0----5----5-||
G||---0----0----6----6----0----0----6----6-||: Guitar-2 Can Play
D||-2----2----7----7----2----2----7----7---||: This One Octave Up
A||----------------------------------------||
E||----------------------------------------||

 -========-
 -=Lyrics=-
 -========-

 -=Verse-1=-
  All around me are familiar faces
  Worn out places, worn out faces

  Bright and early for the daily races
  Going nowhere, going nowhere

  The tears are filling up their glasses
  No expression, no expression

  Hide my head I wana drown my sorrow
  No tomorrow, no tomorrow

       -=Chorus=-
	And I find it kinda funny, 
	I find it kinda sad.
	That the dreams in which I'm dying,
	Are the best I've ever had

	I find it hard to tell you,
	I find it hard to take
	When people run in circles,
	Its a very very... mad world, mad world!

 -=Verse-2=-
  Children waiting for the day they feel good
  Happy birthday, happy birthday.

  And I fear the way that every child should
  Sit and listen, sit and listen

  Went to school and I was very nervous
  No one knew me, no one knew me

  Hello teacher tell me whats my lesson
  Look right through me, look right through me

       -=Chorus=-
	And I find it kinda funny, 
	I find it kinda sad.
	That the dreams in which I'm dying,
	Are the best I've ever had

	I find it hard to tell you,
	I find it hard to take
	When people run in circles,
	Its a very very... mad world, mad world!
	Enlargen your world, mad world!

-====================================================================-
 Thanks for viewing my tab! Any questions, comments or death treats??
 I'm open to all corrections so please e-mail me: theno69@hotmail.com
-====================================================================-
Comments