Jukebox Heroes - Her New Name For Rachel Chords & Tabs

 

Her New Name For Rachel Chords & Tabs

Jukebox Heroes Chords & Tabs

Version: 1 Type: Tab 0 ratings
1 star 2 stars 3 stars 4 stars 5 stars
comments

Her New Name For Rachel Tab

Her (rachel re-done)
JukeBox Heroes

E----------------------------------------------------I
B----------------------------------------------------I
G----------------------------5-----------------------I
D-5------------------2-------5-x7--7-----------------I
A-5-stroke hard 7X---2-x7----3-----7-x5--------------I
E-3------------------0-------------5-----------------I
[ Tab from: http://www.guitartabs.cc/tabs/j/jukebox_heroes/her_new_name_for_rachel_tab.html ]
E----------------------------------------------------I
B----------------------------------------------------I
G----------------------------------------------------I
D-----6-----6-----6------6------6-----6-----6-----6--I
A---7-----7-----7------7------7-----7-----7-----7----I
E-0-----0-----4------4------5-----5-----5-----5------I

E----------------------------------------------------I
B----------------------------------------------------I
G----------------------------------------------------I
D-----6-----6-----6------6------6-----6-----6-----6--I
A---7-----7-----7------7------7-----7-----7-----7----I
E-0-----0-----4------4------5-----5-----5-----5------I
 

how about that greg that better??!
Comments