Jugheads Revenge - Youre Only Dreaming Chords & Tabs

 

Youre Only Dreaming Chords & Tabs

Jugheads Revenge Chords & Tabs

Version: 1 Type: Bass Tab 0 ratings
1 star 2 stars 3 stars 4 stars 5 stars
comments

Youre Only Dreaming Bass Tab

Song:	    Your Only Dreaming
Band:	    Jugheads Revenge
Album:	    Image is Everything
Tabbed By:  Devlin Thornicroft(Dthornicroft@Hotmail)


	VERSE 1

A:---5>--7>----------------------------:
E:-----------5-5-5-9-9-9-2-2-2-0-0-0---:  x2

End 1st Verse with

A:---5>--7>--------:
E:-----------5>----:


VERSE 1	   x2

[ Tab from: http://www.guitartabs.cc/tabs/j/jugheads_revenge/youre_only_dreaming_btab.html ]
	VERSE 2 (variation of verse 1 with)
		Sort of blends in-you'll see

A:---5>--7>----------5>--7>------:
E:-----------7>--9>----------5>--:	x1



	CHORUS

A:--------------4>--7>--4-4---:
E:---5>--2>--9>---------------:		x4


VERSE 1	     x2

VERSE 3	     x4


	ENDING

A:---------------7-5-----7-5---------:
E:---5>--2>--9>------9-9-----9-7-5---:

Comments