Jugheads Revenge - The Peoples Pal Chords & Tabs

 

The Peoples Pal Chords & Tabs

Jugheads Revenge Chords & Tabs

Version: 2 Type: Bass Tab 0 ratings
1 star 2 stars 3 stars 4 stars 5 stars
comments

The Peoples Pal Bass Tab

Song:	   The Peoples Pal
Band:	   Jugheads Revenge
Album:	   Image Is Everything
Tabbed By: Devlin Thornicroft(Dthornicroft@Hotmail.com)


	INTRO

D:--------------------------------------------------:
A:--0>-3-3-2>---0>-7-3-3>---0>-3-3-2>---------------:  x1
E:-------------------------------------3-5-7-8-7-5--:


	VERSE

D:----------------------------------------:
A:--0>-3>-2>----3>-2>--0>-3>-2>-------0>--:	x2
E:-----------1>-----------------1>-3>-----:

	CHORUS

D:-----3>--------------------------------------:
A:--5>----3>-----------------------------------:
E:------------3>-1>-0>-5-3-5-3-5--5-3-5-3-5----:

[ Tab from: http://www.guitartabs.cc/tabs/j/jugheads_revenge/the_peoples_pal_btab_ver_2.html ]
D:---------------------------------------------:
A:-----3>--------------------------------------:	x1
E:--1>----3>-5>-1>-0>-5-3-5-3-5--5-3-5-3-5-----:


	VERSE

D:------------------------------------------------------------:
A:-0>-3>-2>----3>-2>-0>-3>-2>-------0>------------------------:  x1
E:----------1>----------------1>-3>----0-333-555-33-5-7-8-7-5-:



CHORUS 	x1


	MIDDLE PART

D:-----------------:
A:--5>-------------:	x4
E:-----1>-3>-5>----:


D:-----3-3-----------------3-3-----------------:
A:--5>-----3--5>-----3--5>-----3--3-5-6-5-3----:  x1
E:---------------3-5---------------------------:


VERSE	x2


	END

D:----------------------:
A:-----------3----------:
E:--1--3--5-----3--5----:
Comments