Jugheads Revenge - Play With Fire Chords & Tabs

 

Play With Fire Chords & Tabs

Jugheads Revenge Chords & Tabs

Version: 2 Type: Bass Tab 0 ratings
1 star 2 stars 3 stars 4 stars 5 stars
comments

Play With Fire Bass Tab

Song:	     Play With Fire
Band:	     Jugheads Revenge
Album:	     Image is Everything
Tabbed By:   Devlin Thornicroft


	INTRO

G:-----9-7-9----------:
D:-----------9-8-7----:
A:--7-----------------:	x1
E:--------------------:


	VERSE
[ Tab from: http://www.guitartabs.cc/tabs/j/jugheads_revenge/play_with_fire_btab_ver_2.html ]
D:----------------------:
A:--7>----5>----5-5-----:	x4
E:-----7>----5>-----5---:


	CHORUS

A:--7>----5>--12>-----:
E:-----3>-------------:	   x2


VERSE	x4

CHORUS	x2

INTRO	x1

VERSE	x2


	BRIDGE

A:--9>-----7>--9>---:
E:------7>----------:	(This isn't 100% right
			  but sounds good anyway)

VERSE	x5
Comments