Jugheads Revenge - No Apologies Chords & Tabs

 

No Apologies Chords & Tabs

Jugheads Revenge Chords & Tabs

Version: 1 Type: Bass Tab 0 ratings
1 star 2 stars 3 stars 4 stars 5 stars
comments

No Apologies Bass Tab

"No Apologies" - Jughead's Revenge

I haven't figured out the bridge yet, so this'll do for now.

Intro:

Guitar, then: E --8-5-5----

Verse:

A --7-7-7-7-7-7-7-7----------
E ------------------8-5-5----

Chorus:

D ----------5---3|---------5---3-|---------5---3-|----------------|----
A --7-7-7-7------|-3-3-3-3-------|-5-5-5-5-------|-------------7--|-6--
E ---------------|---------------|---------------|-7-5-5----------|----

Bridge:
[ Tab from: http://www.guitartabs.cc/tabs/j/jugheads_revenge/no_apologies_btab.html ]
  |     Buildup     |
D ------------------|------------|------5h7-3-2-0-|
A ------------------|------------|----------------|
E --3-3-3-3-3-3-3-3-|-1----/2----|-3--------------|

D ------------|-----7--5-7-5-|
A ------------|--------------|
E -5----/7----|-3------------|

Outro:

A --7-7-7-7-7-7-8---|-7-7-7-7-7-7-8---|-7-7-7-7-7-7-8---|-7----7

Tabbed by Matt Hamann


E-mail me at matt1@jps.net or gartuck@hotmail.com
Homepage: http://www.jps.net/matt1/index.html

Comments