Jugheads Revenge - For Once In My Life Chords & Tabs

 

For Once In My Life Chords & Tabs

Jugheads Revenge Chords & Tabs

Version: 1 Type: Bass Tab 0 ratings
1 star 2 stars 3 stars 4 stars 5 stars
comments

For Once In My Life Bass Tab

   
Song:	   For Once In My Life
Band:	   Jugheads Revenge
Album: 	   Image is Everything
Tabbed by: Devlin Thornicroft(Dthornicroft@Hotmail.com)


	INTRO

D:-------------------------:
A:-------------------------:	x4
E:---5>--0>--1>--3>--8-7---:


	VERSE

D:---------------------:
A:---------------------:    x4
E:---5>--1>--3>--8-7---:


	PRE-CHORUS
[ Tab from: http://www.guitartabs.cc/tabs/j/jugheads_revenge/for_once_in_my_life_btab.html ]
D:-------3-3--------:
A:---5>-------3-3---:	    x4
E:------------------:


INTRO	x1

VERSE	x2

PRE-C	x4

	CHORUS

D:--------------------------------:
A:---7>--5--3>----------5>--3-3---:	x2
E:-------------3--5>--3-----------:


	MIDDLE PART

D:----------------------------------:
A:-------2-2------2-2------2-2------:	x2
E:---3>-------2>-------3>-------2>--:


INTRO	x2

VERSE	x4

INTRO	x4

Comments