Judy Garland - Somewhere Over The Rainbow Chords & Tabs

 

Somewhere Over The Rainbow Chords & Tabs

Judy Garland Chords & Tabs

Version: 2 Type: Tab 0 ratings
1 star 2 stars 3 stars 4 stars 5 stars
comments

Somewhere Over The Rainbow Tab

Judy Garland - Somewhere Over The Rainbow
Normal Tuning (eBGDAE)


e |---8---7-3-5-7-8-------5-3-------1--0-----------------------|
B |-1-------------------1----------------1-3-5-6--3-0-1-3-5-1--|
G |----------------------------0-2-----------------------------|
D |------------------------------------------------------------|
A |------------------------------------------------------------|
E |------------------------------------------------------------|

e |--3-0-3-0-3-0-3-0----3-1-3-1-3-1-3-1--3-5-5-----------------|
B |------------------------------------------------------------|
G |------------------------------------------------------------|
D |------------------------------------------------------------|
A |------------------------------------------------------------|
E |------------------------------------------------------------|
[ Tab from: http://www.guitartabs.cc/tabs/j/judy_garland/somewhere_over_the_rainbow_tab_ver_2.html ]
e |--3-0-3-0-3-0-3-0----3-1-3-1-3-1-3-1--3-5-5--10-3-----------|
B |------------------------------------------------------------|
G |------------------------------------------------------------|
D |------------------------------------------------------------|
A |------------------------------------------------------------|
E |------------------------------------------------------------|

e |---8---7-3-5-7-8-------5-3------1--0------------------------|
B |-1-------------------1----------------1-3-5-6--3-0-1-3-5-1--|
G |----------------------------0-2-----------------------------|
D |------------------------------------------------------------|
A |------------------------------------------------------------|
E |------------------------------------------------------------|

Great song for beginners to start on... It'll give a new-comer
encouragement/confidence since it's not too hard, and is a tune
many people know.

It isn't Linkin Park, but it's an easier door to open to enter
the world of music playing.

Enjoy! ~Moe Moe
Comments