Judy Garland - Somewhere Over The Rainbow Chords & Tabs

 

Somewhere Over The Rainbow Chords & Tabs

Judy Garland Chords & Tabs

Version: 1 Type: Tab 0 ratings
1 star 2 stars 3 stars 4 stars 5 stars
comments

Somewhere Over The Rainbow Tab

Judy Garland - Somewhere Over The Rainbow


e |---8---7-3-5-7-8-------5-3-----5-3-0-1-3-5-----------0------|
B |-1-------------------1-------1--------------3--0-1-3---1----|
G |------------------------------------------------------------|
D |------------------------------------------------------------|
A |------------------------------------------------------------|
E |------------------------------------------------------------|

e |--3-0--3-0--3-0-3-0----3-1--3--1--3-1-3-1-3--5--7-----------|
B |------------------------------------------------------------|
G |------------------------------------------------------------|
D |------------------------------------------------------------|
A |------------------------------------------------------------|
E |------------------------------------------------------------|




-------------------

another way of playing it would be:



[ Tab from: http://www.guitartabs.cc/tabs/j/judy_garland/somewhere_over_the_rainbow_tab.html ]
e |----------------------------------------------------------------------------|
B |-----13---12----10-12-13-------10---------10---------8-10--------------9----|
G |-------------12-------------------12---------12-9-10-------12--9-10-12---10-|
D |--10------------------------10---------10-----------------------------------|
A |----------------------------------------------------------------------------|
E |----------------------------------------------------------------------------|


e |----------------------------------------------------------------------------|
B |--8-----8-------8---8-------8------8------8----8-----10---12----------------|
G |-----9-----9------9---9--------10-----10----10---10-------------------------|
D |----------------------------------------------------------------------------|
A |----------------------------------------------------------------------------|
E |----------------------------------------------------------------------------|



Rami Mochaourab...
sloboda82@hotmail.com
Comments