Jude Cole - Worlds Apart Chords & Tabs

 

Worlds Apart Chords & Tabs

Jude Cole Chords & Tabs

Version: 1 Type: Chords 0 ratings
1 star 2 stars 3 stars 4 stars 5 stars
comments

Worlds Apart Chords

   
Worlds Apart" by Jude Cole 
Written by Jude Cole and Ron Aniello 
From the album "Start The Car" 
Reprise Records, 1991 

INTRO: 
    G      G/F       G/Db    G/D                C                D 
e-------------------|------------------        ----------------|---------------|
B-------3-------3---|-----3-------3----        -----3-1--------|-----5-3------- 
G-----0---0---0---0-|---0---0---0---0--   x 3  ---------0---0--|---------0---0-|
D---5-------3-------|-1-------0--------        ---2-------2----|---4-------4--- 
A-------------------|------------------        -3--------------|-5------------- 
E-------------------|------------------        ----------------|---------------| 
[ Tab from: http://www.guitartabs.cc/tabs/j/jude_cole/worlds_apart_crd.html ]
G G/F   G/Db     G/D      C    D 
Save me from the dark of night 
I'm drifting like a satellite 
G F        C             G F         C 
Miles from understanding where this love will lead 
G F     C                  Am       Dsus4 D 
Heaven let your light fall down on me 

G    F        C       G   F      C 
Now I'm overthinking, love can't be this hard 
G F     C              Am   D     G 
We seem to be spinning worlds apart 

Sometimes truth is hard to touch 
We give too little, expect too much 
Promises forever, hiding in our eyes 
Worlds of chances passing by 

REPEAT CHORUS ("seem to be drifting") 

You could wait forever, Lord I can't do that 
Spend a lifetime looking back 

G C G F 
INSTRUMENTAL----G F C D, G F C D, G F C D, Am D 

REPEAT FIRST CHORUS 
REPEAT SECOND CHORUS 
REPEAT FIRST CHORUS 

First half of INTRO x2, G 

CHORDS 
    chorus verse 
 G  F  C    C    D Dsus Am  Bb 
-3--3--3----0    2---3---0---1-- 
-3--3--3----1    3---3---1---3-- 
-0--2--0----0    2---2---2---3-- 
-0--3--2----2    0---0---1---3-- 
-2-----3----3    --------0---1-- 
-3-----------    ---------------
Comments