Jude - I Do Chords & Tabs

 

I Do Chords & Tabs

Jude Chords & Tabs

Version: 1 Type: Tab 0 ratings
1 star 2 stars 3 stars 4 stars 5 stars
comments

I Do Tab

   
I Do
Performed by Jude

Verse

   G    D    C9   D

E--3----2----0----2-------|
B--3----3----3----3-------|
G--0----2----0----2-------|
D--0----0----2----0-------|
A--2---------3------------|
E--3----------------------|


Chorus

   C9  D    G F#   Em   D

E--0---3----3---3---0---3--|
B--3---2----3---3---0---2--|
G--0---3----0-------0---3--|	(do this 2x's)
D--2---0----0-------2---0--|
A--3--------2-------2------|
E-----------3-2-----0------|

If you think that I don't love you..

[ Tab from: http://www.guitartabs.cc/tabs/j/jude/i_do_tab.html ]
    C9   D F#    G   C9  D

E---0----3---3---3---0---3-------------|
B---3----2---3---3---3---2-------------|
G---0----3-------0---0---3-------------|
D---2----0-------0---2---0-------------|
A---3------------2---3-----------------|
E-----------2----3---------------------|

I couldn't bear to see you...


BRIDGE

--------------------|
--0----0----0----0--|
--0----0----0----0--|   (repeat 3x's)
--2----2----2----2--|
--2----3----4----3--|
--------------------|
Time rolls on...

------------3-----|
--0----0----2-----|
--0----0----3-----|
--2----2----0-----|
--2----3----------|
------------------|

jaimeobradovich
jaimeo@cox.net
Comments