Judas Priest - Worth Fighting For Chords & Tabs

 

Worth Fighting For Chords & Tabs

Judas Priest Chords & Tabs

Version: 1 Type: Tab 0 ratings
1 star 2 stars 3 stars 4 stars 5 stars
comments

Worth Fighting For Tab

   
----------------------------------------------------------------------------
			     Worth Fighting For - Judas Priest
----------------------------------------------------------------------------
Tabbed by: Patrick Stallings	
Email: patricks_home_aust@sbcglobal.net

Tuning: Tune down 1/2 step to E flat

e|-------------------------------------------------------------------------|
B|-------------------------------------------------------------------------|
G|-------------------------------------------------------------------------|
D|-------------------------------------------------------------------------|
A|-2-2-2-2-2-2-2-2-2-2-2-2-2-2-2-2-----------------------------------------|
E|-0-0-0-0-0-0-0-0-0-0-0-0-0-0-0-0-----------------------------------------|

e|-------------------------------------------------------------------------|
B|-------------------------------------------------------------------------|
G|------------------0------0--------0--------------------------------------|
D|-------2--------2------0--------0------7---------------------------------|
A|---0h2----0-2-3------2--------2------5----0h2---0------------------------|
E|-0--------------------------3-----------------0---3-2--------------------|

e|-------------------------------------------------------------------------|
B|-------------------------------------------------------------------------|
G|------------------0------0--------0--------------------------------------|
D|-------2--------2------0--------0------7---------------------------------|
A|---0h2----0-2-3------2--------2------5----0h2---0------------------------|
E|-0--------------------------3-----------------0---3-2--------------------|
[ Tab from: http://www.guitartabs.cc/tabs/j/judas_priest/worth_fighting_for_tab.html ]
e|-------------------------------------------------------------------------|
B|-------------------------------------------------------------------------|
G|---------------------------------5-5-5-5-5-5-5-5-2-2-2-2-2-2-2-2---------|
D|---------------------------------3-3-3-3-3-3-3-3-0-0-0-0-0-0-0-0---------|
A|-2-2-2-2-2-2-2-2-2-2-2-2-2-2-2-2-----------------------------------------|
E|-0-0-0-0-0-0-0-0-0-0-0-0-0-0-0-0-----------------------------------------|

e|-------------------------------------------------------------------------|
B|-------------------------------------------------------------------------|
G|---------------------------------5-5-5-5-5-5-5-5-2-2-2-------------------|
D|---------------------------------3-3-3-3-3-3-3-3-0-0-0-------------------|
A|-2-2-2-2-2-2-2-2-2-2-2-2-2-2-2-2-----------------------------------------|
E|-0-0-0-0-0-0-0-0-0-0-0-0-0-0-0-0-----------------------0-3-2-------------|

e|-------------------------------------------------------------------------|
B|-------------------------------------------------------------------------|
G|------------------0------0--------0--------------------------------------|
D|-------2--------2------0--------0------7---------------------------------|
A|---0h2----0-2-3------2--------2------5----0h2---0------------------------|
E|-0--------------------------3-----------------0---3-2--------------------|

e|-------------------------------------------------------------------------|
B|-------------------------------------------------------------------------|
G|------------------0------0--------0--------------------------------------|
D|-------2--------2------0--------0------7---------------------------------|
A|---0h2----0-2-3------2--------2------5----0h2---0------------------------|
E|-0--------------------------3-----------------0---3-2--------------------|

Repeat throughout song.

No Solo Yet.


| /  slide up
| \  slide down
| h  hammer-on
| p  pull-off
| ~  vibrato
| +  harmonic
| x  Mute note
============================================================================
Comments