Judas Priest - Victim Of Changes Chords & Tabs

 

Victim Of Changes Chords & Tabs

Judas Priest Chords & Tabs

Version: 2 Type: Tab 0 ratings
1 star 2 stars 3 stars 4 stars 5 stars
comments

Victim Of Changes Tab

into sounds something like this:
^ bend
/ slide
~~ hold

e|15-12-0-(x8)-17-15-0-(x8)-15-12-0-(x4)-14-11-0-(x2)-13-10-0(x2)-12-9------|0(x2)
b|--------------------------------------------------------------------------|
g|--------------------------------------------------------------------------|
d|--------------------------------------------------------------------------|
a|--------------------------------------------------------------------------|
E|--------------------------------------------------------------------------|


e|10-7-0(x2)----------------------------------------------|
b|----------10-7-0(x2)------------------------------------|
g|--------------------9-7-0(x4)-9-8-7---------------------|
d|-----------------------------------9-8-7----------------|
a|-----------------------------------------7-6-5----------|
E|----------------------------------------------7-6-5-3^--|
[ Tab from: http://www.guitartabs.cc/tabs/j/judas_priest/victim_of_changes_tab_ver_2.html ]
e|---------------------|
b|---------------------|
g|---------------------|
d|-7\9-7\7-7\7---------|
a|-5\7-5\9-9\5---------|
E|-------------7-6-5/3-|

e|-----------------------------|
b|-----------------------------|
g|-2--------------2------------|
d|-2-5-5-5-\-7-7--2-5-5-5------|
a|-0-3-3-3-\-5-5--0-3-3-3-5-5--|
E|------------------------3-3--|

e|----------------------------------------------------|
b|----------------------------------------------------|
g|------------------------9-8-7-----------------------|
d|-7\9-7\7-7\7--------x2--------7-8-9-----------------|
a|-5\7-5\9-9\5------------------------7-6-5-----------|
E|-------------7-6-5/3----------------------7-6-5-3^~-|

e|---------------------|
b|---------------------|
g|---------------------|
d|-7\9-7\7-7\7---------|
a|-5\7-5\9-9\5---------|
E|-------------7-6-5/3-|

e|-----------------------------|
b|-----------------------------|
g|-2--------------2------------|
d|-2-5-5-5-\-7-7--2-5-5-5------|
a|-0-3-3-3-\-5-5--0-3-3-3-5-5--|
E|------------------------3-3--|

Listen to the song to get time and rhythem but this is the actual song it sounds 100% 
so have fun!!

Kyle
Comments