Judas Priest - Turning Circles Chords & Tabs

 

Turning Circles Chords & Tabs

Judas Priest Chords & Tabs

Version: 2 Type: Tab 0 ratings
1 star 2 stars 3 stars 4 stars 5 stars
comments

Turning Circles Tab

   
Band:  Judas Priest
Album: Point Of Entry
Song:  Turning Circles

Copyright (c)  (CBS) (1981)
Version 1.0 - (27/02/05)

Transcribed By: Steve
Email:          stephen.elvidge1@ntlworld.com


.  - palm mute           /  - slide up to
\  - slide down to       ~  - vibrato
h  - hammer on           b  - Bend
p  - pull off            Suffixes for bend
t  - tap                 f  - full bend    h - half bend
ph - pinched harmonic    q  - quarter bend t - tap bend
*  - see comment         ^  - Hold bend    r release bend
x  - Stuccatto           ~  - vibrato bend
,  - slight palm mute    () - ghost note, sustained note
"  - tremolo note        <> - Trill

Tunning E A D G B E
 

 Intro

 Cleanish guitar with light overdrive

E-7-7--7---9-9--9------------4-4-4-4-4/6-6--|
B-4-4--4---7-7--7---1212-12--5-5-5-5-5/7-7--|
G-4-4--4---6-6--6---9-9--9---4-4-4-4-4/6-6--|
D-4-4--4------------9-9--9------------------|
A-------------------------------------------|
E-------------------------------------------|Rpt

 Main / Verse Riff
 Full distortion
 [PM]   [PM]   [PM]
E--------------------------|
B------------3------2---3--|
G-----4------2------2---2--|
D-----4-------------2---0--|
A-2-2----2-2----0-0---0----|
E--------------------------|

 Rpt 2 X before vocals enter
 Rpt 8 X for verse 

 Chorus
       [PM]                         [PM]
E---------------------------------------------------------------------|
B---------------------------------------------------------------------|
G-4----------------------------4----------------------------4---------|
D-4--------2---------4---------4--------2---------4---------4---------|
A-2--------2---------4---------2--------2---------4---------2---------|
E--------4-0---------2----------------4-0---------2-------------------|

 Rpt main riff 2 X letting last B chord of chorus fade into feed back.
 Rpt verse

 Halfway through 2nd verse
  Harmonic ~~~~~~~~~~~~~~~~~~~~~~~~~vibrato with trem
E-----------------------------------------------------|
B-<12>------------------------------------------------|
G-----------------------------------------------------|
D-----------------------------------------------------|
A-----------------------------------------------------|
E-----------------------------------------------------|

 Rpt Chorus
 
  Interlude
[ Tab from: http://www.guitartabs.cc/tabs/j/judas_priest/turning_circles_tab_ver_2.html ]
  Guitar 1 Clean with chorus effect
E[-----------------------------------|
B[-------------3-------2-----------3-|
G[-----4---------2-------2-------2---|
D[---4---4---4-------2-------2-0-----|
A[-2-------2-------0-------0---------|
E[-----------------------------------|
 [Guitar 2 clean with chorus effect
E[-----------------------------------|
B[-------------------------------3---|
G[-------------------------------2---|
D[-------------------------------0---|
A[-----------------------------------|
E[-----------------------------------|Rpt 12 X

   Harmonic~~~~~~~~~~~~~~~~~~~~~~~~vibraro with trm
E-------------------------------------------------------------------|
B-<7>---------------------------------------------------------------|
G-------------------------------------------------------------------|
D-------------------------------------------------------------------|
A-------------------------------------------------------------------|
E-------------------------------------------------------------------|
 
 Enters the 5th time.
   ~~~~~~~~~~~~~~        ~~~~                 ~~~~~~~~~~~~~~~~~
E------------------------------------------------------------------|
B-8fb------------r--------------12-10-7----------------------------|
G-------------------9brp7---------------9fbrp7-------(7)--------\--|
D-----------------------------9------------------------------------|
A------------------------------------------------------------------|
E------------------------------------------------------------------|

 Rpt 7th fret harmonic

 Enters 9th time.
   ~~~~~~                         ~~~~~~~~~~~~~~~~~~~~~~~~
E-14-----15fbr-14-19-17-14-13p12------------------------------------|
B--------------------------------15------------17fb-----------------|
G-------------------------------------------------------------------|
D-------------------------------------------------------------------|
A-------------------------------------------------------------------|
E-------------------------------------------------------------------|

 Rpt 7th fet harmonic

 Chorus
 
E---------------------------------------------------------------------|
B---------------------------------------------------------------------|
G-4------/---------------------4------/---------------------4---------|
D-4------/-2-------/-4-------/-4------/-2---------4---------4---------|
A-2------/-2-------/-4-------/-2------/-2---------4---------2---------|
E----------0---------2-------/----------0---------2-------------------|

 Rpt main riff to fade with additional 7th fret harmonic.




END
Comments