Judas Priest - The Hellion Chords & Tabs

 

The Hellion Chords & Tabs

Judas Priest Chords & Tabs

Version: 1 Type: Tab 0 ratings
1 star 2 stars 3 stars 4 stars 5 stars
comments

The Hellion Tab

   
 Judas Priest
The Hellion

 
Gtr I (E A D G B E) - 'Glenn Tipton'
Gtr II (E A D G B E) - 'K.K. Downing'
Gtr III (E A D G B E) - 'Rhythm guitar'

   Intro
    Q=95
    Em                Em
   4/4
    Gtr I
                 ~                 ~
||------------------|-----------------|
||o-----8-7-(7)-----|-----8-7-(7)-----|
||---------------9--|--------------9--|
||----9-------------|---9-------------|
||o-----------------|-----------------|
||------------------|-----------------|
|
|   Gtr II
||------------------|-----------------|
||o-----------------|-----------------|
||------------------|-----------------|
||------------------|-----------------|
||o-----------------|-----------------|
||------------------|-----------------|
|
|   Gtr III
||--0---------------|-0---------------|
||o-0---------------|-0---------------|
||--0---------------|-0---------------|
||--2---------------|-2---------------|
||o-2---------------|-2---------------|
||--0---------------|-0---------------|

[ Tab from: http://www.guitartabs.cc/tabs/j/judas_priest/the_hellion_tab.html ]
  D                     C     D
                 ~
|-----7-------------|---------------------||
|-------10-(10)--8--|--------------------o||
|-------------------|---------7-(7)-9-----||
|---9---------------|------10---------9---||
|-------------------|---10---------------o||
|-------------------|---------------------||
|
|-------------------|---------------------||
|-------------------|--------------------o||
|-------------------|---------------------||
|-------------------|---------------------||
|-------------------|--------------------o||
|-------------------|---------------------||
|
|-2-----------------|-0-------2-(2)-------||
|-3-----------------|-1-------3-(3)------o||
|-2-----------------|-0-------2-(2)-------||
|-0-----------------|-2-------0-(0)-------||
|-------------------|-3------------------o||
|-------------------|---------------------||


    Em                  Em
    Gtr I
                   ~                   ~
||--------------------|-------------------|
||o-----8--7--(7)-----|-----8--7--(7)-----|
||-----------------9--|----------------9--|
||----9---------------|---9---------------|
||o-------------------|-------------------|
||--------------------|-------------------|
|
|   Gtr II
|                  ~                   ~
||------7-------------|-----7-------------|
||o-------10-(10)--8--|-------10-(10)--8--|
||----9---------------|---9---------------|
||--------------------|-------------------|
||o-------------------|-------------------|
||--------------------|-------------------|
|
|   Gtr III
||--0-----------------|-0-----------------|
||o-0-----------------|-0-----------------|
||--0-----------------|-0-----------------|
||--2-----------------|-2-----------------|
||o-2-----------------|-2-----------------|
||--0-----------------|-0-----------------|


  D                    C        D
                  ~~
|-----7--------------|--------------------------||
|-------10-(10)---8--|-------------------------o||
|--------------------|-----------7--(7)-9-------||
|---9----------------|-------10------------9----||
|--------------------|----10-------------------o||
|--------------------|--------------------------||
|
|                 ~~~~~~~~                 ~~
|--------------------|-12-------10-(10)---12----||
|-----8--7--(7)--12--|-------------------------o||
|---9----------------|--------------------------||
|--------------------|--------------------------||
|--------------------|-------------------------o||
|--------------------|--------------------------||
|
|-2------------------|--0--------2--(2)---------||
|-3------------------|--1--------3--(3)--------o||
|-2------------------|--0--------2--(2)---------||
|-0------------------|--2--------0--(0)---------||
|--------------------|--3----------------------o||
|--------------------|--------------------------||



Comments