Judas Priest - Solar Angels Chords & Tabs

 

Solar Angels Chords & Tabs

Judas Priest Chords & Tabs

Version: 2 Type: Tab 0 ratings
1 star 2 stars 3 stars 4 stars 5 stars
comments

Solar Angels Tab

   
Band:  Judas Priest
Album: Point Of Entry
Song:  Solar Angels

Copyright (c)  (CBS) (1981)
Version 1.0 - (09/02/05)

Transcribed By: Steve
Email:          stephen.elvidge1@ntlworld.com


.  - palm mute           /  - slide up to
\  - slide down to       ~  - vibrato
h  - hammer on           b  - Bend
p  - pull off            Suffixes for bend
t  - tap                 f  - full bend    h - half bend
ph - pinched harmonic    q  - quarter bend t - tap bend
*  - see comment         ^  - Hold bend    r release bend
x  - Stuccatto           ~  - vibrato bend
,  - slight palm mute    () - ghost note, sustained note
"  - tremolo note        <> - Trill

Tunning E A D G B E

Intro
 Guitar 1 with phase/flanger effect
 [---------------------PM---------]
E-----------------------------------|
B-----------------------------------|
G-----------------------------------|
D-----------------------------------|
A---------7-7-7-7---------7-7-7-7---|
E-0-0-0-0-0-0-0-0-0-0-0-0-0-0-0-0---|
Rpt 8 X before guitar 2, bass and drums enter

 Guitar 2
      h
E------------------------------------------------------|
B------------------------------------------------------|
G-7---9------(9)------------------14--12------(12)-----|
D-7-7-9------(9)------------------14--12------(12)-----|
A-7-7-7------(7)------------------12--10------(10)-----|
E------------------------------------------------------|
                                            Feedback
E------------------------------------------------------|
B------------------------------------------------------|
G-7-7-9------(9)------------------14--12------(12)-----|
D-7-7-9------(9)------------------14--12------(12)-----|
A-5-5-7------(7)------------------12--10------(10)-----|
E------------------------------------------------------|
[ Tab from: http://www.guitartabs.cc/tabs/j/judas_priest/solar_angels_tab_ver_2.html ]
E------------------------------------------------------|
B------------------------------------------------------|
G-12-\11--------------------------11-\9----------------|
D-12-\11--------------------------11-\9----------------|
A-10-\9---------------------------9--\7----------------|
E------------------------------------------------------|

Verse

E-----------------------------------------------|
B--------3-------------3--3p2-------------------|
G-2------2------2------2------2-9---7--/9-------|
D-2------0------2------0--------9---7--/9-------|
A-0-------------0---------------7---5--/7-------|
E-------------------------------0-------0-------|Rpt 2 X

Chorus

E-----3-------1-----|
B-----3-------1-----|
G-4-------2---------|
D-5-------3---------|
A-5-------3---------|
E-3-------1---------|

E--------------------------------------|
B--------------------------------------|
G---7-7--7-7/9----------14-14\12-------|
D---7-7--7-7/9----------14-14\12-------|
A---5-5--5-5/7----------12-12\10-------|
E--------------------------------------||Rpt 2 X

Rpt verse
Rpt chorus

E---------------------------------------|
B---------------------------------------|
G---------------------------------------|
D-2---------------(2)--------------2----|
A-2---------------(2)--------------2----|
E-0---------------(0)--------------0----|

Backing for guitar solo
 Riff A
E------------------|
B------------------|
G---------(4)------|
D-2-2-4---(4)------|
A-0-0-2---(2)------|
E------------------|Rpt 12 X

 Riff B
E------------------|
B------------------|
G------------------|
D-2-2--------------|
A-0-0-5----5-4-2---|
E-----3----3-2-0---|

Rpt riff A 2 X
Rpt riff B
Rpt riff A 2 X


Rpt verse
Rpt chorus

Ending
E-------------------------------------------------------------|
B--------3-------------3-----3--------------------------------|
G-2------2------2------2-----2--6--2--------------------------|
D-2------0------2------0-----0--6--2------2--------(2)--------|
A-0-------------0---------------4--0------2--------(2)--------|
E-----------------------------------------0--------(0)--------|



END
Comments