Judas Priest - Revolution Chords & Tabs

 

Revolution Chords & Tabs

Judas Priest Chords & Tabs

Version: 3 Type: Tab 0 ratings
1 star 2 stars 3 stars 4 stars 5 stars
comments

Revolution Tab

                            JUDAS PRIEST
                             REVOLUTION


STANDARD TUNING
EADGBe


--------------------------------------------------------------|
--------------------------------------------------------------|
---9-9-9-9-12-9-9--2-2-3-3-4--9-9-9-9-12-9-9------------------|
---9-9-9-9-12-9-9--2-2-3-3-4--9-9-9-9-12-9-9-7b-7b-5b-5b-7p5--|
---7-7-7-7-10-7-7--0-0-1-1-2--7-7-7-7-10-7-7------------------|
--------------------------------------------------------------|

--------------------------------------------------------|
--------------------------------------------------------|
---9-9-9-9-12-9-9-7/9-9-9-x-x-x-9-9-9-9-12-9-9-2-3-4----|
---9-9-9-9-12-9-9-7/9-9-9-x-x-x-9-9-9-9-12-9-9-2-3-4----|x2
---7-7-7-7-10-7-7-5/7-7-7-x-x-x-7-7-7-7-10-7-7-0-1-2----|
--------------------------------------------------------|

-------------------------------------------------------------|
-------------------------------------------------------------|
-------------------------------------------------------------|
--7-9--7-9-----------------------7-9--7-9------5-------------|
--5-7--5-7-------------5-7-10p7--5-7--5-7--5h7---7-5---------|
-------------5h7-7-5-7-------------------------------7-5-3---|

--------------------------------------------------------|
--------------------------------------------------------|
---9-9-9-9-12-9-9-7/9-9-9-x-x-x-9-9-9-9-12-9-9-2-3-4----|
---9-9-9-9-12-9-9-7/9-9-9-x-x-x-9-9-9-9-12-9-9-2-3-4----|x2
---7-7-7-7-10-7-7-5/7-7-7-x-x-x-7-7-7-7-10-7-7-0-1-2----|
--------------------------------------------------------|

in this one they change it a little but i cant tell what it is
-------------------------------------------------------------|
-------------------------------------------------------------|
-------------------------------------------------------------|
--7-9--7-9-----------------------7-9--7-9------5-------------|
--5-7--5-7-------------5-7-10p7--5-7--5-7--5h7---7-5---------|
-------------5h7-7-5-7-------------------------------7-5-3---|
[ Tab from: http://www.guitartabs.cc/tabs/j/judas_priest/revolution_tab_ver_3.html ]
--------------------------------------------------------|
--------------------------------------------------------|
---9-9-9-9-12-9-9-7/9-9-9-x-x-x-9-9-9-9-12-9-9-2-3-4----|
---9-9-9-9-12-9-9-7/9-9-9-x-x-x-9-9-9-9-12-9-9-2-3-4----|x2
---7-7-7-7-10-7-7-5/7-7-7-x-x-x-7-7-7-7-10-7-7-0-1-2----|
--------------------------------------------------------|

-----------------------------------------------------------|
-----------------------------------------------------------|
--14b----14b--14b---9-9-9-9-12-9-7-9--9-9-9-9-12-9-2-3-4---|
--------------------9-9-9-9-12-9-7-9--9-9-9-9-12-9-2-3-4---|
--------------------7-7-7-7-10-7-5-7--7-7-7-7-10-7-0-1-2---|
-----------------------------------------------------------|

-----------------------------------------|
-----------------------------------------|
--9-9-9-9-12-9-7-9--9-9-9-9-12-9-2-3-4---|
--9-9-9-9-12-9-7-9--9-9-9-9-12-9-2-3-4---|
--7-7-7-7-10-7-5-7--7-7-7-7-10-7-0-1-2---|
-----------------------------------------|

repeat this a couple times
----------------|
----------------|
--2-3-4-2-3-4---|
--2-3-4-2-3-4---|
--0-1-2-0-1-2---|
----------------|

solo
---------------------------------------------------------------|
---------------------------------------------------------------|
---14b---14b--12-14-12-14br-12---14b--14b--12-14-12-14br-12----|
-----------------------------------------------------------14--|
---------------------------------------------------------------|
---------------------------------------------------------------|

---------------------------------------------------------------|
---------------------------------------------------------------|
---14b---14b--12-14-12-14br-12---14b--14b--12-14-12-14br-12----|
-----------------------------------------------------------14--|
---------------------------------------------------------------|
---------------------------------------------------------------|

palm muted
----------------------------------|
----------------------------------|
----------------------------------|
--9xxx9xxx9xxx9xxx9xxx9-2223334---|x6
--7xxx7xxx7xxx7xxx7xxx7-0001112---|
----------------------------------|

repeat many times
--------------------------------------------------------|
---9-9-9-9-12-9-9-7/9-9-9-x-x-x-9-9-9-9-12-9-9-2-3-4----|
---9-9-9-9-12-9-9-7/9-9-9-x-x-x-9-9-9-9-12-9-9-2-3-4----|
---7-7-7-7-10-7-7-5/7-7-7-x-x-x-7-7-7-7-10-7-7-0-1-2----|
--------------------------------------------------------|

thats it
great song
peace
Comments