Judas Priest - Realms Of Death Chords & Tabs

 

Realms Of Death Chords & Tabs

Judas Priest Chords & Tabs

Version: 1 Type: Tab 0 ratings
1 star 2 stars 3 stars 4 stars 5 stars
comments

Realms Of Death Tab

   
  Judas Preist
Realms Of Death

Gtr I (E A D G B E) - 'Acoustic 12 String'
Gtr II (E A D G B E) - 'Lead guitar'
Gtr III (E A D G B E) - 'Distorted Rhythm Guitar'
Gtr IV (E A D G B E) - 'Acoustic Rhythm'

 Intro
  Q=85
  B5                  A5                  G5                  E5    F#5
 4/4
  Gtr IV
   |                   |                   |                   |  |||     |
   /                   /                   /                   /  ///     /

  Gtr II
   <
   ~~~~~~~~~~~~~~~~~~~~~~~~~~~~~~~~~~~~~~~~~~~~~~~~~~~~~~~~~~~~~~~
|-------------------|-------------------|-------------------|----------------|
|-------------------|-------------------|-------------------|----------------|
|-------------------|-------------------|-------------------|----------------|
|-[9]---------------|-(9)---------------|-(9)---------------|-(9)------------|
|-------------------|-------------------|-------------------|----------------|
|-------------------|-------------------|-------------------|----------------|
|
| Gtr I
|-----------0-------|-----------0-------|-----------0-------|----------------|
|-------------3-----|-------------3-----|-------------3-----|----------------|
|---------------4---|---------------4---|---------------4---|----------------|
|-----4---4-------4-|-----4---4-------4-|-----4---4-------4-|--2----4----(4)-|
|--2----2-----------|--0----0-----------|-------------------|--2----4----(4)-|
|-------------------|-------------------|--3----3-----------|--0----2----(2)-|


  B5                      A5
  |                       |
  /                       /

|-----------------------|-----------------------|
|-----------------------|-----------------------|
|-----------------------|-----------------------|
|-9-------(9)-11---12---|-9-------(9)-11---12---|
|-----------------------|-----------------------|
|-----------------------|-----------------------|
|
|----------0------------|----------0------------|
|--------------3--------|--------------3--------|
|----------------4------|----------------4------|
|---4---4-------------4-|---4---4-------------4-|
|-2---2-----------------|-0---0-----------------|
|-----------------------|-----------------------|


  G5                  E5   F#5
  |                    | |||     |
  /                    / ///     /

                       >
                       ~~
|-------------------|----------------|
|-------------------|----------------|
|-------------------|----------------|
|-9-----------9-(9)s|=16-------------|
|-------------------|----------------|
|-------------------|----------------|
|
|---------0---------|----------------|
|-----------3-------|----------------|
|-------------4-----|----------------|
|---4---4--------4--|--2---4----(4)--|
|-------------------|--2---4----(4)--|
|-3---3-------------|--0---2----(2)--|


   1st Verse
    B5                A5
    |                 |
    /                 /

    Gtr I
||----------0-------|---------0-------|
||o-----------3-----|-----------3-----|
||--------------4---|-------------4---|
||----4---4-------4-|---4---4-------4-|
||o-2---2-----------|-0---0-----------|
||------------------|-----------------|


                   1.,2.,3.          4.
  G5                E5  F#5           F#5
  |                 | |||     |       |
  /                 / ///     /       /

                                      Gtr III
                                      <
                                  4x
|---------0-------|---------------||-------|
|-----------3-----|--------------o||-------|
|-------------4---|---------------||-------|
|---4---4-------4-|-2---4----(4)--||--4----|
|-----------------|-2---4----(4)-o||--4----|
|-3---3-----------|-0---2----(2)--||--2----|


   1st Chorus
    A5B5B5 A5B5B5   A5B5B5 A5B5C#D5C#5   F#5
    Gtr III
                                         >
                                      4x
||----------------|-------------------||------|
||o---------------|------------------o||------|
||----------------|-------------------||------|
||--2-4-4--2-4-4--|-2-4-4--2-4-6-7-6--||-4----|
||o-0-2-2--0-2-2--|-0-2-2--0-2-4-5-4-o||-4----|
||----------------|-------------------||-2----|


   2nd Verse
    B5                A5
    Gtr IV
    |                 |
    /                 /

||------------------|-----------------|
||o-----------------|-----------------|
||------------------|-----------------|
||------------------|-----------------|
||o-----------------|-----------------|
||------------------|-----------------|
|
|   Gtr I
||----------0-------|---------0-------|
||o-----------3-----|-----------3-----|
||--------------4---|-------------4---|
||----4---4-------4-|---4---4-------4-|
||o-2---2-----------|-0---0-----------|
||------------------|-----------------|


                   1.,2.,3.                  4.
  G5                E5  F#5                   F#5
  |                 | |||            |        |
  /                 / ///            /        /

                                >
                                ~~~~~~~~~
                                          4x
|-----------------|-------------()--||-------|
|-----------------|-------------------o||-------|
|-----------------|-----------------------||-------|
|-----------------|-----------------------||-------|
|-----------------|----------------------o||-------|
|-----------------|-----------------------||-------|
|
|                                             Gtr III
|                                             <
|                                         4x
|---------0-------|-----------------------||-------|
|-----------3-----|----------------------o||-------|
|-------------4---|-----------------------||-------|
|---4---4-------4-|-2---4-----------(4)---||--4----|
|-----------------|-2---4-----------(4)--o||--4----|
|-3---3-----------|-0---2-----------(2)---||--2----|


   2nd Chorus
    A5B5B5 A5B5B5   A5B5B5 A5B5C#D5C#5
    Gtr III
                                      4x
||----------------|-------------------||
||o---------------|------------------o||
||----------------|-------------------||
||--2-4-4--2-4-4--|-2-4-4--2-4-6-7-6--||
||o-0-2-2--0-2-2--|-0-2-2--0-2-4-5-4-o||
||----------------|-------------------||


   Interlude
    F#5
    Gtr III
        PM--------|     PM--------|
||-----------------------------------||
||o---------------------------------o||
||-----------------------------------||
||--2h4-------------2h4--------------||
||o-2h4-4-4-4-4-4-4-2h4-4-4-4-4-4-4-o||
||------2-2-2-2-2-2-----2-2-2-2-2-2--||


  E5                                E5
      PM--------|     PM--------|       PM--------|
|---------------------------------|----------------------|
|---------------------------------|----------------------|
|---------------------------------|----------------------|
|-0h2-------------0h2-------------|-0h2-------------2----|
|-0h2-2-2-2-2-2-2-0h2-2-2-2-2-2-2-|-0h2-2-2-2-2-2-2-2----|
|-----0-0-0-0-0-0-----0-0-0-0-0-0-|-----0-0-0-0-0-0-0----|


   3rd Chorus
    A5B5B5 A5B5B5   A5B5B5 A5B5C#D5C#5
    Gtr III
||----------------|-------------------||
||o---------------|------------------o||
||----------------|-------------------||
||--2-4-4--2-4-4--|-2-4-4--2-4-6-7-6--||
||o-0-2-2--0-2-2--|-0-2-2--0-2-4-5-4-o||
||----------------|-------------------||


 Interlude
  B5        A5
  Gtr III
  |||   |   |||   |
  ///   /   ///   /

|---------|---------|
|---------|---------|
|---------|---------|
|---------|---------|
|---------|---------|
|---------|---------|


           Guitar Solo
  G5        E5                   F#5
  |||   |   |                    |                     |
  ///   /   /                    /                     /

          Gtr II
|---------|-------------------------------------------------|
|---------|--12-(12)s10-------------------------------------|
|---------|-------------------------------------------11s14-|
|---------|-------------12p11-----------9-12p11-14p12-------|
|---------|-------------------12-8s9-12---------------------|
|---------|-------------------------------------------------|


  B5                         A5
   |          | |     |        |      |  |         |
   /          / /     /        /      /  /         /

                ~~                       ~~
|--------------------17----|-------------------------|
|-17-(17)b19===17-------17r|=(17)-15-17-----15b17----|
|--------------------------|------------16-----------|
|--------------------------|-------------------------|
|--------------------------|-------------------------|
|--------------------------|-------------------------|


  G5
  |      | |                     |
  /      / /                     /

|----------------17-------------------------|
|--19-17--15-14-----14-15-12-14-12-10-12-10-|
|-------------------------------------------|
|-------------------------------------------|
|-------------------------------------------|
|-------------------------------------------|


  E5                 F#5
  |                  |              |
  /                  /              /

|---------------------------------------|
|------10-------------------------------|
|-9-11----11-10p9----9-11----[9]--------|
|-----------------12------12-----11--12-|
|---------------------------------------|
|---------------------------------------|


  B5                   A5
  | ||         |        |    |  |               |
  / //         /        /    /  /               /

|--------------------|----------------------------------|
|--------------------|-------------------------10-12-15-|
|--------------------|----9-12-11---------9-11----------|
|-9----9-11-12-------|------------9-11-12---------------|
|---------------9-10-|-12-------------------------------|
|--------------------|----------------------------------|


  G5                            E5                F#5
   | | |           |             |                 |                |
   / / /           /             /                 /                /

   ~~                                                             ~~~~
|-----------14----14----------|--------------------------------------|
|-12--15-12----12----12-14-15-|-12-14-15p14-14-15-12h14p12----12-11--|
|-----------------------------|----------------------------11--------|
|-----------------------------|--------------------------------------|
|-----------------------------|--------------------------------------|
|-----------------------------|--------------------------------------|


  B5
   |     ||               |
   /     //               /

 ~~~~~~~~~~~~~~~~
|-----------------------------------------|
|-10b12=====(10)-10r(10)------------------|
|------------------------11s9-9b11r(9)p7--|
|-----------------------------------------|
|-----------------------------------------|
|-----------------------------------------|


  A5                                G5
  | ||             |                |         ||              |
  / //             /                /         //              /

|---------------------------------|-----------------------------------|
|-----------12-10-----------------|-----------------------------------|
|-9--7---11-------11s9-9b11r(9)p7-|-9-(9)b11===9r(9)-9h10-9p7-9p7---7-|
|---------------------------------|-------------------------------9---|
|---------------------------------|-----------------------------------|
|---------------------------------|-----------------------------------|


  E5                  F#5
  |                   |                   |
  /                   /                   /

|----------------------------------------------|
|----------------------------------------------|
|-9-(9)b11==9-9-9r(9)-9-9-9-(9)s7-7-7-7s6-6-7--|
|----------------------------------------------|
|----------------------------------------------|
|----------------------------------------------|


  B5             A5              G5
  | ||   |       | ||    |       | ||     |
  / //   /       / //    /       / //     /

  ~              ~
|--------------|---------------|--------------------|
|--------------|---------------|--------------------|
|-4------4-6-7-|-4------/9-7-6-|-4----7p4-6p4-4s6-7-|
|--------------|---------------|--------------------|
|--------------|---------------|--------------------|
|--------------|---------------|--------------------|


  E5            F#5
  |              |                     |
  /              /                     /

          ~~~~~~~~~~
|-------------------------------------------|
|-----------------------------10------------|
|-6-7-9p7-9b11==(9)-9r(9)-9p7----9b11r(9)p7-|
|-------------------------------------------|
|-------------------------------------------|
|-------------------------------------------|


  B5
   |         | |                    |
   /         / /                    /

               ~~~~~~
|------------------------------------------|
|-10b12-(10)--10b12===10r(10)p7-10-10b12===|
|------------------------------------------|
|------------------------------------------|
|------------------------------------------|
|------------------------------------------|


  A5
    |        |  |                        |
    /        /  /                        /

|-------7-----------7---------------------------------|
|-(10)r---10--7---7---10-7---7------------------------|
|---------------9----------9---9-7-9-7---7------------|
|--------------------------------------9---9-7-9-7----|
|--------------------------------------------------9s=|
|-----------------------------------------------------|


  G5                           E5          F#5
  |   | |            |         |           |                     |
  /   / /            /         /           /                     /

|----------------------------|----------------------------------------|
|----------------------------|-----------7-7-7-7S10-10-10-10S12-12-15-|
|----------------------------|-7---7-9-9------------------------------|
|--------------------7---7h9-|---9------------------------------------|
|-7-8p7--7s5-5s7-7s9---9-----|----------------------------------------|
|----------------------------|----------------------------------------|


  B5
   | | |                    |
   / / /                    /

   ~~     ~~~~~~~~          ~~~~
|------------------------------|
|-12--15-12--(12)-14-15-17-17--|
|------------------------------|
|------------------------------|
|------------------------------|
|------------------------------|


  A5
    |      |  |                          |
    /      /  /                          /

 ~~~~~~
|---------------14-------14-15----14-15----14-15----14-15-17-|
|-(17)-14-15-17----15-17-------17-------17-------17----------|
|------------------------------------------------------------|
|------------------------------------------------------------|
|------------------------------------------------------------|
|------------------------------------------------------------|


  G5
   |    | |                  |
   /    / /                  /

          ~~~~~
|-17b19--17b19--17-15-14-15-17-15-14----|
|------------------------------------17-|
|---------------------------------------|
|---------------------------------------|
|---------------------------------------|
|---------------------------------------|


  E5                      F#5
   |                       |                    |
   /                       /                    /

                                             ~~~~
|-14-17-14h15p14-14h15p14------------------------|
|-------------------------17b19==(17)-(17)r(17)--|
|------------------------------------------------|
|------------------------------------------------|
|------------------------------------------------|
|------------------------------------------------|


  B5
   |             |   |                     |
   /             /   /                     /

                                ~~~
|------------22-------------22---------------------------|
|-22-(22)b24----22-(22)b24=====22r--19h22p19----19-------|
|--------------------------------------------21----21b23-|
|--------------------------------------------------------|
|--------------------------------------------------------|
|--------------------------------------------------------|


  A5
    |                 |   |                                           |
    /                 /   /                                           /

|-----------------------------------------------------19----------19----------19----------19---|
|------19h22p19--------19h=22p19-------19h22p19-22p19----19-22p19----19-22p19----19-22-19------|
|-(21)----------21b23------------21b23---------------------------------------------------------|
|----------------------------------------------------------------------------------------------|
|----------------------------------------------------------------------------------------------|
|----------------------------------------------------------------------------------------------|


  G5                                                F#5
   |            |    |                    |          |
   /            /    /                    /          /
[ Tab from: http://www.guitartabs.cc/tabs/j/judas_priest/realms_of_death_tab.html ]
                                                     >
           ~~~~~~~~~                                 ~~
|-------------------19-21-22-22b24-22-21-19-------|-------|
|-22b24==(22)-(22)r-------------------------22----|-------|
|----------------------------------------------19-|-18----|
|-------------------------------------------------|-------|
|-------------------------------------------------|-------|
|-------------------------------------------------|-------|


  B5                 A5                 G5                   E5     F#5
 4/4
  Gtr IV
   |                  |                   |                    |  |||     |
   /                  /                   /                    /  ///     /

                      ~~~~~~~~~~~~~~~~~~~~~~~~~~~~~~~~~~~~~~~~~~~~
|------------------|-22---------------|-(22)---------------|-(22)------------|
|------------------|------------------|--------------------|-----------------|
|-19---------------|------------------|--------------------|-----------------|
|------------------|------------------|--------------------|-----------------|
|------------------|------------------|--------------------|-----------------|
|------------------|------------------|--------------------|-----------------|
|
| Gtr I
|----------0-------|----------0-------|------------0-------|-----------------|
|------------3-----|------------3-----|--------------3-----|-----------------|
|--------------4---|--------------4---|----------------4---|-----------------|
|----4---4-------4-|----4---4-------4-|------4---4-------4-|---2----4----(4)-|
|--2---2-----------|--0---0-----------|--------------------|---2----4----(4)-|
|------------------|------------------|---3----3-----------|---0----2----(2)-|


   3rd Verse
    B5                    A5              G5
      |                   |
      /                   /

||--(22)\---------------|-----------------|
||o---------------------|-----------------|
||----------------------|-----------------|
||----------------------|-----------------|
||o---------------------|-----------------|
||----------------------|-----------------|
|
|   Gtr I
||--------------0-------|---------0-------|
||o---------------3-----|-----------3-----|
||------------------4---|-------------4---|
||--------4---4-------4-|---4---4-------4-|
||o---2-----2-----------|-0---0-----------|
||----------------------|-----------------|


                   1.,2.,3.          4.
                    E5  F#5          F#5
  |                 | |||     |      |
  /                 / ///     /      /

                                  4x
|-----------------|---------------||------|
|-----------------|--------------o||------|
|-----------------|---------------||------|
|-----------------|---------------||------|
|-----------------|--------------o||------|
|-----------------|---------------||------|
|
|                                    Gtr III
|                                    <
|                                 4x
|---------0-------|---------------||------|
|-----------3-----|--------------o||------|
|-------------4---|---------------||------|
|---4---4-------4-|-2---4----(4)--||-4----|
|-----------------|-2---4----(4)-o||-4----|
|-3---3-----------|-0---2----(2)--||-2----|


   4th Chorus
    A5B5B5 A5B5B5   A5B5B5 A5B5C#D5C#5
    Gtr III
                                      4x
||----------------|-------------------||
||o---------------|------------------o||
||----------------|-------------------||
||--2-4-4--2-4-4--|-2-4-4--2-4-6-7-6--||
||o-0-2-2--0-2-2--|-0-2-2--0-2-4-5-4-o||
||----------------|-------------------||


   Interlude
    F#5
    Gtr III
        PM--------|     PM--------|
||-----------------------------------||
||o---------------------------------o||
||-----------------------------------||
||--2h4-------------2h4--------------||
||o-2h4-4-4-4-4-4-4-2h4-4-4-4-4-4-4-o||
||------2-2-2-2-2-2-----2-2-2-2-2-2--||


  E5                                E5
      PM--------|     PM--------|       PM--------|
|---------------------------------|----------------------|
|---------------------------------|----------------------|
|---------------------------------|----------------------|
|-0h2-------------0h2-------------|-0h2-------------2----|
|-0h2-2-2-2-2-2-2-0h2-2-2-2-2-2-2-|-0h2-2-2-2-2-2-2-2----|
|-----0-0-0-0-0-0-----0-0-0-0-0-0-|-----0-0-0-0-0-0-0----|


 Guitar Solo Outro
  B5
  Gtr II
                                             ~~
|----------------------------------------------------|
|-[17]b19========17r(17)p15------------17---15-------|
|---------------------------16---14-16---------------|
|----------------------------------------------------|
|----------------------------------------------------|
|----------------------------------------------------|
|
| Gtr III
|            PM----------------|        PM---------|
|----------------------------------------------------|
|----------------------------------------------------|
|---2h=====4----------------------2h=4---------------|
|---2h=====4-4-4------4---4--4-4--2h=4--4-4--4-4-4-4-|
|------------2-2------2---2--2-2--------2-2--2-2-2-2-|
|----------------------------------------------------|


  B5                                   A5B5   C#5  D5    C#5
                                                       ~~
|----------------------------------------------------------|
|-17-15-17-15-17-17b19====(17)r-17b19====(17)r(17)p15-17---|
|----------------------------------------------------------|
|----------------------------------------------------------|
|----------------------------------------------------------|
|----------------------------------------------------------|
|
|        PM---------------------|
|----------------------------------------------------------|
|----------------------------------------------------------|
|--2h=4----------------------------------------------------|
|--2h=4--4--4--4--4-----4--------4-----2---4----6---7----6-|
|--------2--2--2--2-----2--------2-----0---2----4---5----4-|
|----------------------------------------------------------|


  B5
                                                  ~~~~~
|------------------------------------------------------------|
|------------------------------------------------------------|
|----11-14p11----11-14p11----11-14p11----14b16---14b16-------|
|-14----------14----------14----------14---------------------|
|------------------------------------------------------------|
|------------------------------------------------------------|
|
|        PM------------------|            PM---------------|
|------------------------------------------------------------|
|------------------------------------------------------------|
|--2h=4--------------------------2h====4---------------------|
|--2h=4--4-----4--4--4-----4--4--2h====4--4----4--4----4-4-4-|
|--------2-----2--2--2-----2--2-----------2----2--2----2-2-2-|
|------------------------------------------------------------|


  B5                                          A5    B5   C#5   D5      C#5
                                                                     ~~
|------------------------------------------------------------------------|
|-15p12------12----------------------------------------------------------|
|---------14----14---11-14p11------11------11-14p11------11--------------|
|-------------------------------14----14--------------14----14p==12------|
|-------------------------------------------------------------------14---|
|------------------------------------------------------------------------|
|
|             PM-------------------------|
|------------------------------------------------------------------------|
|------------------------------------------------------------------------|
|--2h===4----------------------------------------------------------------|
|--2h===4-----4----4-----4----4-----4----4-----2----4-----6----7-------6-|
|-------------2----2-----2----2-----2----2-----0----2-----4----5-------4-|
|------------------------------------------------------------------------|


  B5
                                                                              ~~~~~~~
|---------------------------------------------------------------------------------------|
|-12h15p==12------17p12------15p12------17p12------15p12------17p12------15-[15]b17-----|
|------------14-----------14---------14---------14---------14---------14----------------|
|---------------------------------------------------------------------------------------|
|---------------------------------------------------------------------------------------|
|---------------------------------------------------------------------------------------|
|
|               PM----------------------------|                PM---------------------|
|---------------------------------------------------------------------------------------|
|---------------------------------------------------------------------------------------|
|--2h===4-------------------------------------------2h===4------------------------------|
|--2h===4-------4-------4-----4----4-----4----4-----2h===4-----4----4-----4---4-----4-4-|
|---------------2-------2-----2----2-----2----2----------------2----2-----2---2-----2-2-|
|---------------------------------------------------------------------------------------|


  B5                         A5 B5 C#5D5    C#5
                                          ~~
|---------------------------------------------|
|-17-15p14h15-14-12---------------------------|
|-------------------14-13---------------------|
|-------------------------14-11-12-11---------|
|-------------------------------------12-14---|
|---------------------------------------------|
|
|           PM------------|
|---------------------------------------------|
|---------------------------------------------|
|--2h=4---------------------------------------|
|--2h=4-----4--4--4--4--4--4--2--4--6--7----6-|
|-----------2--2--2--2--2--2--0--2--4--5----4-|
|---------------------------------------------|


  B5
|-----------------------------------------------------|
|-----------------------------------------------------|
|-16-16-16-----16-16-16-----16-16-16-----16-16-16-----|
|-16-16-16-----16-16-16-----16-16-16-----16-16-16-----|
|-----------------------------------------------------|
|-----------------------------------------------------|
|
|          PM-------------|          PM-------------|
|-----------------------------------------------------|
|-----------------------------------------------------|
|--2h====4-------------------2h====4------------------|
|--2h====4-4-4--4-----4-4-4--2h====4-4-4--4-----4-4-4-|
|----------2-2--2-----2-2-2----------2-2--2-----2-2-2-|
|-----------------------------------------------------|


  B5                                      A5     B5C#D5          C#5
             ~~~~~~~~~         ~~~~~~~~~~~~~~~~~~
|------------------------------------------------------------------------|
|-17b19====(17)-(17)r-17b19==(17)---(17)r-17b19========(17)r(17)p==15----|
|---------------------------------------------------------------------16-|
|------------------------------------------------------------------------|
|------------------------------------------------------------------------|
|------------------------------------------------------------------------|
|
|            PM---------------------|
|------------------------------------------------------------------------|
|------------------------------------------------------------------------|
|--2h====4---------------------------------------------------------------|
|--2h====4---4----4----4-------4--4---4----2-----4-6-7-----------6-------|
|------------2----2----2-------2--2---2----0-----2-4-5-----------4-------|
|------------------------------------------------------------------------|


  B5
             ~~~~~~~~~~~~~~~~~~~~~~~~~~           ~~~~~~~~~
|---------------------------------------------------------------------------------|
|-17b19====(17)-(17)r-17b19======(17)r-17b19====(17)-(17)r-17b19==(17)r(17)p15----|
|------------------------------------------------------------------------------16-|
|---------------------------------------------------------------------------------|
|---------------------------------------------------------------------------------|
|---------------------------------------------------------------------------------|
|
|            PM------------------|                PM---------------------------|
|---------------------------------------------------------------------------------|
|---------------------------------------------------------------------------------|
|--2h====4------------------------------2h====4-----------------------------------|
|--2h====4---4----4----4-----4-4---4----2h====4---4----4----4------------4---4--4-|
|------------2----2----2-----2-2---2--------------2----2----2------------2---2--2-|
|---------------------------------------------------------------------------------|


  B5                                   A5 B5C#D5       C#5
           ~~~~~~~~~~~~~~~~~~~~~~~~~~~~~~~               ~~~~~~~~~
|--------------------------------------17-------------------------|
|-17b19==(17)---(17)r-17b19======(17)r----------17b19==(17)-(17)r-|
|-----------------------------------------------------------------|
|-----------------------------------------------------------------|
|-----------------------------------------------------------------|
|-----------------------------------------------------------------|
|
|             PM-----------------|
|-----------------------------------------------------------------|
|-----------------------------------------------------------------|
|--2h======4------------------------------------------------------|
|--2h======4--4---4----4-----4-4---4----2-4-6-7----------6--------|
|-------------2---2----2-----2-2---2----0-2-4-5----------4--------|
|-----------------------------------------------------------------|


  B5
|-------------------------19-19-19-19-19-19-19-19-17-19-19-19-19-19-19-19-17-19-19-19-19-19-19-19--|
|--------------------------------------------------------------------------------------------------|
|-16-16-16-16-16-16-16-16--------------------------------------------------------------------------|
|--------------------------------------------------------------------------------------------------|
|--------------------------------------------------------------------------------------------------|
|--------------------------------------------------------------------------------------------------|
|
|              PM---|                  PM---|                  PM---|                  PM---|
|--------------------------------------------------------------------------------------------------|
|--------------------------------------------------------------------------------------------------|
|--2h====4-----------------------------------------2h====4-----------------------------------------|
|--2h====4-----4-----4-----4-----------4-----4-----2h====4-----4-----4-----4-----------4-----4-----|
|--------------2-----2-----2-----------2-----2-----------------2-----2-----2-----------2-----2-----|
|--------------------------------------------------------------------------------------------------|


  B5                                              A5    B5C#D5       C#5
                                                   ~~~~~~~~~~~~~~~~~~
|-22-19-19-19-22-19-19-19-22-19-19-19-22-19-19-22-22b24-------24b26====|
|----------------------------------------------------------------------|
|----------------------------------------------------------------------|
|----------------------------------------------------------------------|
|----------------------------------------------------------------------|
|----------------------------------------------------------------------|
|
|              PM---|                  PM---|
|----------------------------------------------------------------------|
|----------------------------------------------------------------------|
|--2h====4-------------------------------------------------------------|
|--2h====4-----4-----4-----4-----------4-----4-----2----4-6-7--------6-|
|--------------2-----2-----2-----------2-----2-----0----2-4-5--------4-|
|----------------------------------------------------------------------|


  H.=H
  A5   B5       B5 A5B5B5   A5B5B5 A5B5C#D5C#5
    ~~~~
|-(24)---(24)r\-----------|------------------|
|-------------------------|------------------|
|-------------------------|------------------|
|-------------------------|------------------|
|-------------------------|------------------|
|-------------------------|------------------|
|
|-------------------------|------------------|
|-------------------------|------------------|
|-------------------------|------------------|
|---2--4--------4--2-4-4--|-2-4-4--2-4-6-7-6-|
|---0--2--------2--0-2-2--|-0-2-2--0-2-4-5-4-|
|-------------------------|------------------|


                                     Q=65
  A5B5B5 A5B5B5   A5B5B5 A5B5C#D5C#5 F#5
|---------------|------------------|------*|
|---------------|------------------|------*|
|---------------|------------------|------*|
|---------------|------------------|------*|
|---------------|------------------|------*|
|---------------|------------------|------*|
|
|---------------|------------------|------*|
|---------------|------------------|------*|
|---------------|------------------|------*|
|-2-4-4--2-4-4--|-2-4-4--2-4-6-7-6-|------*|
|-0-2-2--0-2-2--|-0-2-2--0-2-4-5-4-|-4----*|
|---------------|------------------|-2----*|



*
Comments