Judas Priest - Rapid Fire Chords & Tabs

 

Rapid Fire Chords & Tabs

Judas Priest Chords & Tabs

Version: 1 Type: Tab 0 ratings
1 star 2 stars 3 stars 4 stars 5 stars
comments

Rapid Fire Tab

RAPID FIRE
British Steel
Transcribed by Ashley Dalby

E---||----------------------------||--||------------|-----------|-------
B---||----------------------------||--||------------|-----------|-------
G---||*--------------------------*||--||*--5--5--5--|--5--5--5--|--5----
D---||*--------------------------*||--||*--5--5--5--|--5--5--5--|--5----
A---||---0--0--0--0--0--0--0--0---||--||---3--3--3--|--3--3--3--|--3----
E---||----------------------------||--||------------|-----------|------- 2x 

E---------|------------||--||---------|---------|--------|------||------
B---------|------------||--||---------|---------|--------|------||------
G---5--5--|--5--5--5--*||--||*--------|---------|--------|-----*||------
D---5--5--|--5--5--5--*||--||*--7--5--|--7--10--|--7--5--|--7--*||------
A---3--3--|--3--3--3---||--||---7--5--|--7--10--|--7--5--|--7---||------
E---------|------------||--||---5--3--|--5--8---|--5--3--|--5---||------ 

E------------|-----------|-----------|------------||--||---------|------
B------------|-----------|-----------|------------||--||---------|------
G---5--5--5--|--5--5--5--|--5--5--5--|--5--5--5--*||--||*--------|------
D---5--5--5--|--5--5--5--|--5--5--5--|--5--5--5--*||--||*--7--5--|------
A---3--3--3--|--3--3--3--|--3--3--3--|--3--3--3---||--||---7--5--|------
E------------|-----------|-----------|------------||--||---5--3--|------ 2x 

E----------|--------|------||--||------------|-----------|--------------
B----------|--------|------||--||------------|-----------|--------------
G----------|--------|-----*||--||*-----------|-----------|--------------
D---7--10--|--7--5--|--7--*||--||*--5--5--5--|--5--5--5--|--5--5--5-----
A---7--10--|--7--5--|--7---||--||---5--5--5--|--5--5--5--|--5--5--5-----
E---5--8---|--5--3--|--5---||--||---3--3--3--|--3--3--3--|--3--3--3----- 2x 
[ Tab from: http://www.guitartabs.cc/tabs/j/judas_priest/rapid_fire_tab.html ]
E---|------------||--||---------|---------|--------|------||--||--------
B---|------------||--||---------|---------|--------|------||--||--------
G---|-----------*||--||*--------|---------|--------|-----*||--||*-------
D---|--5--5--5--*||--||*--7--5--|--7--10--|--7--5--|--7--*||--||*--5----
A---|--5--5--5---||--||---7--5--|--7--10--|--7--5--|--7---||--||---5----
E---|--3--3--3---||--||---5--3--|--5--8---|--5--3--|--5---||--||---3---- 

E---------|-----------|-----------|------------||--||---------|---------
B---------|-----------|-----------|------------||--||---------|---------
G---------|-----------|-----------|-----------*||--||*--------|---------
D---5--5--|--5--5--5--|--5--5--5--|--5--5--5--*||--||*--7--5--|--7------
A---5--5--|--5--5--5--|--5--5--5--|--5--5--5---||--||---7--5--|--7------
E---3--3--|--3--3--3--|--3--3--3--|--3--3--3---||--||---5--3--|--5------ 2x 

E-------|--------|------||--||---------|-----------|-----------|--------
B-------|--------|------||--||---------|-----8--7--|--8--------|--------
G-------|--------|-----*||--||*--9--7--|--9--7--7--|--7--9--7--|--9-----
D---10--|--7--5--|--7--*||--||*--9--7--|--9--7--7--|--7--9--7--|--9-----
A---10--|--7--5--|--7---||--||---7--5--|--7--------|-----7--5--|--7-----
E---8---|--5--3--|--5---||--||---------|-----------|-----------|-------- 3x 

E----||--||---||---------|------------|------------|------------|-------
B----||--||---||---------|------------|------------|------------|-------
G---*||--||*--||*--9--7--|--9--12--7--|--9--12--7--|--9--12--7--|--4----
D---*||--||*--||*--9--7--|--9--12--7--|--9--12--7--|--9--12--7--|--4----
A----||--||---||---7--5--|--7--10--5--|--7--10--5--|--7--10--5--|--2----
E----||--||---||---------|------------|------------|------------|-------

E----||--||----------------------||--||---------------------------------
B----||--||----------------------||--||---------------------------------
G---*||--||*--------------------*||--||*--------------------------------
D---*||--||*--2p0--0--2p0--2p0--*||--||*--------------------------------
A----||--||----------------------||--||---------------------------------
E----||--||----------------------||--||---------------------------------
Comments