Judas Priest - Parental Guidance Chords & Tabs

 

Parental Guidance Chords & Tabs

Judas Priest Chords & Tabs

Version: 2 Type: Tab 0 ratings
1 star 2 stars 3 stars 4 stars 5 stars
comments

Parental Guidance Tab

   
                  Parental Guidance - Judas Priest
----------------------------------------------------------------------------
Tabbed by: The Apemaster
Email: dawn_shadow@hotmail.com

Tuning: Standard

They use guitar-synthesizers and stuff in the intro, and I'm not really sure how they 
it, but this works anyway...

Intro
Rythm fig. one
e|------------------------------|-----------------|
B|-5-----4-----2-----4-----5\4--|-----------------|
G|-4-----4-----4-----4-----4----|-4-4-4-4-----4-4-|
D|-4-----4-----4-----4-----4----|-4-4-4-4--4--2-4-|
A|-2-2-2-2-2-2-2-2-2-2-2-2-2----|-2-2-2-2--4--2-2-|let ring...
E|------------------------------|----------2------|

Repeat fig. one

e|----------------------|
B|----------------------|
G|-4-4-4-4-----7-7--9-9-|
D|-4-4-4-4--4--7-7--9-9-|
A|-2-2-2-2--4--5-5--7-7-|
E|----------2-----------|

Verse.

Rythm fig. one.

Bridge. They play it i a way don't really hear, but it's something like this
[ Tab from: http://www.guitartabs.cc/tabs/j/judas_priest/parental_guidance_tab_ver_2.html ]
Rythm fig. 2
  |   G     |   D    |          A          |
e|-----------------------------------------|
B|--------3--------5---------5-------------|
G|-------4-4---5--5-5-------6-6------7p6---|
D|---5--5-----5--5------7--7------7------7-|
A|--5--------3--3------7---------7---------|
E|-3---3--------------5--5------5--5-------|x2


D|-7--9-9-|
A|-7--9-9-|
E|-5--7-7-|

Chorus.

Rythm fig.3
  |        B          |     A     |D|B|
e|-------------------------------------|
B|-4-----4------2--5\4-----------------|
G|-4-----4------4--4---2-x-x-2-2---7\4-|
D|-4-----4------4--4---2-x-x-2-2---7\4-|
A|-2-x-x-2-x-x-2--2----0-x-x-0-0---5\2-|
E|-------------------------------3-----|X2

Now comes the part I don't know, it's something like this... I think

Rythm fig.4
e|-------------------------|
B|-------------------------|
G|---4--7-----9------------|
D|--4--7---7-9--|    G|-4--|
A|-2--5---7-7---|    D|-4--|
E|-------5------|X3  A|-2--|let ring

Glenn solo. Mail it to me if you know it, I don't...
Comments