Judas Priest - Parental Guidance Chords & Tabs

 

Parental Guidance Chords & Tabs

Judas Priest Chords & Tabs

Version: 1 Type: Tab 0 ratings
1 star 2 stars 3 stars 4 stars 5 stars
comments

Parental Guidance Tab

   
Judas Priest
Parental Guidance

Gtr I (E A D G B E) - 'Glenn Tipton'
Gtr II (E A D G B E) - 'K.K. Downing'
Gtr III (E A D G B E) - 'Light Dist. Mute'

 Intro
  Q=124
 4/4
  Gtr III                             Gtr I
  PM------------------------------|
|-----------------|-----------------|---------------|------|
|-----------------|-----------------|---------------|------|
|-4---4-3---4---4-|-4-4-4-3-4-4-4-4-|-4-4-4-------4-|-4----|
|-4-4-4-4-4-4-4-2-|-2-2-2-2-2-2-2-2-|-4-4-4-4--2--4-|-4----|
|-----------------|-----------------|-2-2-2-4--2--2-|-2----|
|-----------------|-----------------|-------2--0----|------|
|
| Gtr II
|-----------------|-----------------|---------------|------|
|-----------------|-----------------|---------------|------|
|-----------------|-----------------|-4-4-4-------4-|-4----|
|-----------------|-----------------|-4-4-4-4--2--4-|-4----|
|-----------------|-----------------|-2-2-2-4--2--2-|-2----|
|-----------------|-----------------|-------2--0----|------|


  Gtr III
  PM------------------------------|
|-----------------|-----------------|
|-----------------|-----------------|
|-4---4-3---4---4-|-----4-3-4-4-4---|
|-4-4-4-4-4-4-4-2-|-2-2-2-2-2-2-2-2-|
|-----------------|-----------------|
|-----------------|-----------------|
|
|-----------------|-----------------|
|-----------------|-----------------|
|-----------------|-----------------|
|-----------------|-----------------|
|-----------------|-----------------|
|-----------------|-----------------|


  Gtr I
|---------------|-----------|----------------|
|---------------|-----------|----------------|
|-4-4-4-------7-|-7-------9-|-9\-------------|
|-4-4-4-4--2--7-|-7-------9-|-9\-------------|
|-2-2-2-4--2--5-|-5-------7-|-7\-------------|
|-------2--0----|-----------|----------------|
|
|---------------|-----------|----------------|
|---------------|-----------|----------------|
|-4-4-4-------7-|-7-------9-|-9-----(9)-9\---|
|-4-4-4-4--2--7-|-7-------9-|-9-----(9)-9\---|
|-2-2-2-4--2--5-|-5-------7-|-7-----(7)-7\---|
|-------2--0----|-----------|----------------|


   Verse 1 - 2
      PM|   PM  PM    PM------------|     PM|   PM  PM    PM--|   PM----|
||------------------|-----------------|-----------------|------------------|
||o-----------------|-----------------|-----------------|------------------|
||--4-----3---4-----|-----------------|-4-----3---4-----|------------------|
||--4-----4---4---2-|-----------------|-4-----4---4---2-|-------4----------|
||o-2-2-2-2-2-2-2-2-|-----------------|-2-2-2-2-2-2-2-2-|-------4----------|
||----------------0-|-0-0-0-0-0-0-0-0-|---------------0-|-0-0-0-2-2-2-2-2--|
|
|     PM|   PM  PM    PM------------|     PM|   PM  PM          PM      PM
||------------------|-----------------|-----------------|------------------|
||o-----------------|-----------------|-----------------|------------------|
||--4-----3---4-----|-----------------|-4-----3---4-----|---4-2---4-4-2----|
||--4-----4---4---2-|-----------------|-4-----4---4---2-|---4-2---4-4-2----|
||o-2-2-2-2-2-2-2-2-|-----------------|-2-2-2-2-2-2-2-2-|-------4----------|
||----------------0-|-0-0-0-0-0-0-0-0-|---------------0-|---------------2--|


    PM|   PM  PM    PM------------|     PM|   PM  PM    PM--|   PM------|
|-----------------|-----------------|-----------------|--------------------|
|-----------------|-----------------|-----------------|--------------------|
|-4-----3---4-----|-----------------|-4-----3---4-----|--------------------|
|-4-----4---4---2-|-----------------|-4-----4---4---2-|-------4------------|
|-2-2-2-2-2-2-2-2-|-----------------|-2-2-2-2-2-2-2-2-|-------4------------|
|---------------0-|-0-0-0-0-0-0-0-0-|---------------0-|-0-0-0-2-2-2-2-2-2--|
|
|                   PM------------|     PM|                   PM
|-----------------|-----------------|-----------------|--------------------|
|-----------------|-----------------|-----------------|--------------------|
|-4---------------|-----------------|-4-----3---4---4-|---4-2---4-4-2-4----|
|-4---------------|-----------------|-4-----4---4---4-|---4-2---4-4-2-4----|
|-----------------|-----------------|-2-2-2-2---------|-------4------------|
|-----------------|-0-0-0-0-0-0-0-0-|-----------------|---------2-2-2-2----|


 Pre-Chorus
|-----3--------3----|-------2-------2---|
|---3---3---3-----3-|---------3-------3-|
|-0-------0---------|-----2-------2-----|
|-------------------|--0--------0-------|
|-------------------|-------------------|
|-------------------|-------------------|
|
|-------------------|-------------------|
|-----------------3-|-(3)---------------|
|-----------------2-|-(2)-------------2-|
|-----5-------(5)-0-|-(0)-------------4-|
|-----5-------(5)---|-----------------0-|
|-3---3-------(3)---|-------------------|


|-------------------|---------------------------|
|-------------------|---------------15----14----|
|-----2-------------|---------14-------------14-|
|---2---2-------7p5-|------14----14----14-------|
|-0-------0-4s7-----|-xs12----------------------|
|-------------------|---------------------------|
|
|   PM--------|          PM------------------|
|-------------------|---------------------------|
|-------------------|---------------------------|
|-------------------|---------------------------|
|-2-2-2-2-2---2---2-|----2--2--2--2--2--2--2--2-|
|-0-0-0-0-0---0-4---|----0--0--0--0--0--0--0--0-|
|-------------------|---------------------------|


|----------------------------|-------------------|
|---------------12----12-----|---------------7---|
|---------12----12----12-----|-------7-----------|
|------12----12----12-----12-|-----7---7---7---7-|
|-xs10-----------------------|--5--------5-------|
|----------------------------|-------------------|
|
|----------------------------|-------------------|
|--------------------------3-|-(3)---------------|
|--------------------------2-|-(2)-------2-2-2-2-|
|----------5----------(5)--0-|-(0)-------0-0-0-4-|
|----5-----5----------(5)----|-----------------0-|
|----3-----3----------(3)----|-------------------|


|-----------------------|-------------------|
|-----------------------|-------------------|
|-------2---2h4-------9-|-(9)-11-11-----2S==|
|-----2---2---------7-9-|-(9)-11-11-----2S==|
|--0------------xs7---7-|-(7)--9--9---------|
|-----------------------|-------------------|
|
|             PM----|
|-----------------------|-------------------|
|---------------------5-|-(5)--7--7---------|
|-(2)-2-2-------------4-|-(4)--6--6---------|
|-(4)-2-2-----------2-2-|-(2)--4--4---------|
|-(0)-0-0-----0---0-0---|---------------7S==|
|-----------------------|---------------5S==|


 Chorus
  $
              PM----|   PM|   PM
|-----------------|-----------------|
|-----------------|---------5-------|
|-4-4-4---4-------|---4-----4---4-2-|
|-4-4-6---4-------|---4-----4---4-2-|
|-------------2-2-|-2---2-2---2-2-0-|
|-----------------|-----------------|
|
|   PM  PM  PM--------------|
|-----------------|-----------------|
|-----------------|-----------------|
|-----9---8-------|-----------7---6-|
|-----9---9-------|-----------9---7-|
|-9---------------|-----------------|
|-7-7---7---7-7-7-|-7-7-7-7-7-------|


                                 ~~~~~~
|-------------------|-----------------------|
|-------------------|-----------------------|
|-(2)---2---2-2-----|--------------------2--|
|-(2)---2---2-2-----|--------------------2--|
|-(0)---0---0-0---0-|-(0)--0-2s5-2-(2)------|
|-------------------|-----------------------|
|
|  PM-----|     PM               ~~~~~~
|-------------------|-----------------------|
|-------------------|-----------------------|
|-----------------7-|-(7)\------------------|
|-----------------7-|-(7)\------------------|
|-----------7-7-----|------0-2s5-2-(2)---7--|
|--5--5-5-5-5-5-5---|--------------------5--|


              PM----|   PM|   PM
|-----------------|-----------------|
|-----------------|---------5-------|
|-4-4-4---4-------|---4-----4---4-2-|
|-4-4-6---4-------|---4-----4---4-2-|
|-------------2-2-|-2---2-2---2-2-0-|
|-----------------|-----------------|
|
|   PM  PM  PM--------------|
|-----------------|-----------------|
|-----------------|-----------------|
|-----9---8-------|-----------7---6-|
|-----9---9-------|-----------9---7-|
|-9---------------|-----------------|
|-7-7---7---7-7-7-|-7-7-7-7-7-------|


             To Coda
                                 ~~~~~~
|-------------------|----------------------||
|-------------------|---------------------o||
|-(2)---2---2-2-----|----------------------||
|-(2)---2---2-2-----|----------------------||
|-(0)---0---0-0---0-|-(0)--0-2s5-2-(2)----o||
|-------------------|----------------------||
|
|  PM-----|     PM               ~~~~~~
|-------------------|----------------------||
|-------------------|---------------------o||
|-----------------7-|-(7)\-----------------||
|-----------------7-|-(7)\-----------------||
|-----------7-7-----|------0-2s5-2-(2)----o||
|--5--5-5-5-5-5-5---|----------------------||


 Bridge
|-------------------|---------------2--|-------------------|-------------2----|
|---------------0---|-------------3----|---------------0---|---------------3--|
|-----2-------0---0-|-----2----2-------|-----2-------0---0-|-----2----2-------|
|---0------0--------|-------0----------|---0------0--------|-------0----------|
|-------------------|---4--------------|-------------------|---4--------------|
|-2-----3-----------|-0----------------|-2-----3-----------|-0----------------|
|
|-------------------|------------------|-------------------|------------------|
|-------------------|------------------|-------------------|-------3-(3)------|
|-------------------|-------2-(2)------|-------------------|-------2-(2)------|
|-------------------|-2-----0-(0)------|-------------------|-------0-(0)------|
|-5-----5-(5)-------|-4----------------|---5-5-5-(5)-------|---4-0------------|
|-2-----3-(3)-------|------------------|-2---2-3-(3)-------|-0----------------|


|-----------------|---------------2--|
|-------------0---|-------------3----|
|-----2-----0---0-|-----2----2-------|
|---0-----0-------|-------0----------|
|-----------------|---4--------------|
|-2-----3---------|-0----------------|
|
|-----------------|------------------|
|-------------0---|-------3-(3)------|
|-----2-----0---0-|-----2-2-(2)------|
|---0-----0-------|-------0-(0)------|
|-----------------|---4--------------|
|-2-----3---------|-0----------------|


|-------------------|------------------------|
|---------------0---|------------------------|
|-----2-------0---0-|-2/----------7h9-8h10s==|
|---0------0--------|-2/----7-7h9------------|
|-------------------|-0/---------------------|
|-2-----3-----------|------------------------|
|
|-------------------|------------------------|
|-------------------|------------------------|
|-------------------|------------------------|
|-------------------|-7----------------------|
|-5-----5-(5)-------|-7----------------------|
|-2-----3-(3)-------|-5----------------------|


|--------------10h13p10h14p12h15p13h16p14h17p14h18p15h19p16-|
|-----10h12h13----------------------------------------------|
|-12--------------------------------------------------------|
|-----------------------------------------------------------|
|-----------------------------------------------------------|
|-----------------------------------------------------------|
|
|-----------------------------------------------------------|
|-----------------------------------------------------------|
|-----------------------------------------------------------|
|-(7)-------------------------------------------------------|
|-(7)-------------------------------------------------------|
|-(5)-------------------------------------------------------|

[ Tab from: http://www.guitartabs.cc/tabs/j/judas_priest/parental_guidance_tab.html ]
 Guitar Solo
   ~~~~~~~~~~~~~
|-17b19===(17)r===(17)-17-18-|-19--22-19--17-19-22-19-17-17b19---(17)s5h6h|
|----------------------------|--------------------------------------------|
|----------------------------|--------------------------------------------|
|----------------------------|--------------------------------------------|
|----------------------------|--------------------------------------------|
|----------------------------|--------------------------------------------|
|
|----------------------------|--------------------------------------------|
|----------------------------|--------------------------------------------|
|----------------------------|--------------------------------------------|
|--9--------9-----------5----|-(5)-----5------------7----------7------9---|
|--9--------9-----------5----|-(5)-----5------------7----------7------9---|
|--7--------7-----------3----|-(3)-----3------------5----------5------7---|


|--7h=10p7p6h7p6p5--------------------------------|
|------------------7p6p5--------------------------|
|------------------------7p6h7p6h7h11p7-7-7p6p4---|
|-----------------------------------------------7-|
|-------------------------------------------------|
|-------------------------------------------------|
|
|-------------------------------------------------|
|-------------------------------------------------|
|-------------------------------------------------|
|-(9)------9-----9---------9-----9------------5---|
|-(9)------9-----9---------9-----9------------5---|
|-(7)------7-----7---------7-----7------------3---|


                              ~~
|---------------------------|-------------------------|
|---------------------------|-------------------------|
|-------7-------------------|-------------------------|
|--7h=9---9-9p8-7-----------|-----9-------------------|
|-----------------9-8-7-[5]-|-----9--9---9----------5-|
|---------------------------|-7\--7--7---7----------3-|
|
|                 PM--|       ~~
|---------------------------|-------------------------|
|---------------------------|-------------------------|
|---------------------------|-------------------------|
|-(5)---5-------------------|----------------5s7-7s12-|
|-(5)---5---5s==7-7-7-7-[5]-|-------------------------|
|-(3)---3---3s==5-5-5-5-----|-7------7-7-5-5----------|


|---------------------------------------------|------------------------------------|
|---------------------------------------------|------------------------------------|
|---------------------------------------------|------------------------------------|
|--------------------------7------------9-----|--9-------9---9-9--------------5----|
|-(5)--------5-------------7------------9-----|--9-------9---9-9--------------5----|
|-(3)--------3-------------5------------7-----|--7-------7---7-7--------------3----|
|
|                                                \2/
|                                                        ~
|---------------------------------------------|------------------19-19-19-19-22-19-|
|--------------12-14-15b19---(15)----7-10p7---|-------------19---------------------|
|-----11-12-14---------------------9--------9-|-[9]--9p7-9-------------------------|
|-14------------------------------------------|------------------------------------|
|---------------------------------------------|------------------------------------|
|---------------------------------------------|------------------------------------|


                                                  Interlude
                                  PM----|
|-----------------------------------------------||-------------------------|
|-----------------------------------------------||-------------------------|
|-----------------------------------------------||----------4---------4----|
|-(5)-------------------------------------------||--------4---4---4------4-|
|-(5)--------5--------5s=======7--7-----7---7\--||-4s==6--------7----------|
|-(3)--------3--------3s=======5--5-----5---5\--||-------------------------|
|
|-19--19-------------------------22b26====(22)--||---(22)r==========(22)---|
|--------22-19----19-22-19----19----------------||-------------------------|
|--------------21----------21-------------------||-------------------------|
|-----------------------------------------------||-------------------------|
|-----------------------------------------------||-------------------------|
|-----------------------------------------------||-------------------------|


|-----------------|---------------------|-----------------|---------||
|-----------------|---------------------|-----------------|---------||
|-----4---3-------|-------4--------4----|---7-------------|---------||
|---2---------4---|-----4---4---4-----4-|---7-------------|---7-----||
|-4-----4---4---4-|-4s6-------7---------|---5-------------|---7-----||
|-----------------|---------------------|-----------------|---5-----||
|
|                     ~~    ~
|-----------------|---------------------|-----------------|---------||
|-----------------|------------------|-()---8---10--|-(10)----||
|-----------------|---------------------|-----------------|---------||
|-----------------|---------------------|-----------------|---------||
|-----------------|-4-6s==7-7-----------|-----------------|---------||
|-----------------|-------------7-------|-----------------|---------||


 Pre-Chorus
|-----3--------3----|---------------2---|
|---3---3---3-----3-|-------3---------3-|
|-0-------0---------|-----2---2---2-----|
|-------------------|--0--------0-------|
|-------------------|-------------------|
|-------------------|-------------------|
|
|-------------------|-------------------|
|-----------------3-|-(3)-------3-3-3---|
|-----------------2-|-(2)-------2-2-2-2-|
|-----5-------(5)-0-|-(0)-------0-0-0-4-|
|-----5-------(5)---|-------------------|
|-3---3-------(3)---|-------------------|


|-------------------|---------------------------|
|-------------------|---------------15----14----|
|-----2-------------|---------14-------------14-|
|---2---2-------7p5-|------14----14----14-------|
|-0-------0-4s7-----|-xs12----------------------|
|-------------------|---------------------------|
|
| PM      PM---------------------------------|
|-------------------|---------------------------|
|-------------------|---------------------------|
|---2-2-------------|---------------------------|
|---2-2---2---2-2-2-|----2--2--2--2--2--2--2--2-|
|-0---0---0---0-0-0-|----0--0--0--0--0--0--0--0-|
|-------------------|---------------------------|


|----------------------------|-------------------|
|----------------------------|---------------7---|
|---------12----------12-----|-------7---7-----7-|
|------12----12----12-----12-|-----7---7---7-----|
|-xs10----------10-----------|--5----------------|
|----------------------------|-------------------|
|
|----------------------------|-------------------|
|--------------------------3-|-(3)---------------|
|--------------------------2-|-(2)---2-2-2-2-2-2-|
|----------5----------(5)--0-|-(0)---0-0-0-0-0-4-|
|----5-----5----------(5)----|-----------------0-|
|----3-----3----------(3)----|-------------------|


|-------------------|--------------------|
|-------------------|--------------------|
|-----2---2-------9-|-(9)-11-11--------4-|
|---2---2-------7-9-|-(9)-11-11--------2-|
|-0---------xs7---7-|-(7)--9--9----------|
|-------------------|--------------------|
|
| PM      PM----|
|-------------------|--------------------|
|-----------------5-|-(5)--7--7----(7)---|
|---2-2-----------4-|-(4)--6--6----(6)---|
|---2-2---2---2-2-2-|-(2)--4--4----(4)-2-|
|-0---0---0---0-0---|------------------2-|
|-------------------|------------------0-|


      D.S. al Coda  &
                               ~~~~~~
|-------------------||-------------------|
|-------------------||-------------------|
|-(4)-6-6-----(6)---||-----------------2-|
|-(2)-4-4-----(4)---||-----------------2-|
|-----------------0-||-0-0-2s5-2-(2)-----|
|-------------------||-------------------|
|
|                              ~~~~~~
|-------------------||-------------------|
|-------------------||-------------------|
|-------------------||-7---------------2-|
|-(2)-4-4--4--------||-7---------------2-|
|-(2)-4-4--4--------||---0-2s5-2-(2)-----|
|-(0)-2-2--2------5-||-------------------|


 Out-Chorus
              PM----|   PM|   PM
|-----------------|-----------------|
|-----------------|---------5-------|
|-4-4-4---4-------|---4-----4---4-2-|
|-4-4-6---4-------|---4-----4---4-2-|
|-------------2-2-|-2---2-2---2-2-0-|
|-----------------|-----------------|
|
|   PM  PM  PM--------------|
|-----------------|-----------------|
|-----------------|-----------------|
|-----9---8-------|-----------7---6-|
|-----9---9-------|-----------9---7-|
|-9---------------|-----------------|
|-7-7---7---7-7-7-|-7-7-7-7-7-------|


                                 ~~~~~~
|-------------------|-----------------------|
|-------------------|-----------------------|
|-(2)---2---2-2-----|--------------------2--|
|-(2)---2---2-2-----|--------------------2--|
|-(0)---0---0-0---0-|-(0)--0-2s5-2-(2)------|
|-------------------|-----------------------|
|
|  PM-----|     PM               ~~~~~~
|-------------------|-----------------------|
|-------------------|-----------------------|
|-----------------7-|-(7)\------------------|
|-----------------7-|-(7)\------------------|
|-----------7-7-----|------0-2s5-2-(2)---7--|
|--5--5-5-5-5-5-5---|--------------------5--|


              PM----|   PM|   PM
|-----------------|-----------------|
|-----------------|---------5-------|
|-4-4-4---4-------|---4-----4---4-2-|
|-4-4-6---4-------|---4-----4---4-2-|
|-------------2-2-|-2---2-2---2-2-0-|
|-----------------|-----------------|
|
|   PM  PM  PM--------------|
|-----------------|-----------------|
|-----------------|-----------------|
|-----9---8-------|-----------7---6-|
|-----9---9-------|-----------9---7-|
|-9---------------|-----------------|
|-7-7---7---7-7-7-|-7-7-7-7-7-------|


                                 ~~~~~~
|-------------------|-----------------------|
|-------------------|-----------------------|
|-(2)---2---2-2-----|--------------------2--|
|-(2)---2---2-2-----|--------------------2--|
|-(0)---0---0-0---0-|-(0)--0-2s5-2-(2)------|
|-------------------|-----------------------|
|
|  PM-----|     PM               ~~~~~~
|-------------------|-----------------------|
|-------------------|-----------------------|
|-----------------7-|-(7)\------------------|
|-----------------7-|-(7)\------------------|
|-----------7-7-----|------0-2s5-2-(2)---7--|
|--5--5-5-5-5-5-5---|--------------------5--|


              PM----|   PM|   PM
|-----------------|-----------------|
|-----------------|---------5-------|
|-4-4-4---4-------|---4-----4---4-2-|
|-4-4-6---4-------|---4-----4---4-2-|
|-------------2-2-|-2---2-2---2-2-0-|
|-----------------|-----------------|
|
|   PM  PM  PM--------------|
|-----------------|-----------------|
|-----------------|-----------------|
|-----9---8-------|-----------7---6-|
|-----9---9-------|-----------9---7-|
|-9---------------|-----------------|
|-7-7---7---7-7-7-|-7-7-7-7-7-------|


                                 ~~~~~~
|-------------------|-----------------------|
|-------------------|-----------------------|
|-(2)---2---2-2-----|--------------------2--|
|-(2)---2---2-2-----|--------------------2--|
|-(0)---0---0-0---0-|-(0)--0-2s5-2-(2)------|
|-------------------|-----------------------|
|
|  PM-----|     PM               ~~~~~~
|-------------------|-----------------------|
|-------------------|-----------------------|
|-----------------7-|-(7)\------------------|
|-----------------7-|-(7)\------------------|
|-----------7-7-----|------0-2s5-2-(2)---7--|
|--5--5-5-5-5-5-5---|--------------------5--|


              PM----|   PM|   PM
|-----------------|-----------------|-------------------|------------------*|
|-----------------|---------5-------|-------------------|------------------*|
|-4-4-4---4-------|---4-----4---4-2-|-(2)---2---2-2-----|------------------*|
|-4-4-6---4-------|---4-----4---4-2-|-(2)---2---2-2-----|------------------*|
|-------------2-2-|-2---2-2---2-2-0-|-(0)---0---0-0---0-|-(0)--0-2s5-2-----*|
|-----------------|-----------------|-------------------|------------------*|
|
|   PM  PM  PM--------------|          PM-----|     PM
|-----------------|-----------------|-------------------|------------------*|
|-----------------|-----------------|-------------------|------------------*|
|-----9---8-------|-----------7---6-|-----------------7-|-(7)\-------------*|
|-----9---9-------|-----------9---7-|-----------------7-|-(7)\-------------*|
|-9---------------|-----------------|-----------7-7-----|------0-2s5-2-----*|
|-7-7---7---7-7-7-|-7-7-7-7-7-------|--5--5-5-5-5-5-5---|------------------*|



Comments