Judas Priest - Pain Killer Chords & Tabs

 

Pain Killer Chords & Tabs

Judas Priest Chords & Tabs

Version: 1 Type: Tab 1 rating
1 star 2 stars 3 stars 4 stars 5 stars
comments

Pain Killer Tab

   
Judas Priest
Painkiller

Gtr I (E A D G B E) - 'Untitled'
Gtr II (E A D G B E) - 'Untitled'
Gtr III (E A D G B E) - 'Untitled'
Gtr IV (E A D G B E) - 'Untitled'
Gtr V (E A D G B E) - 'OverDub'
Gtr VI (E A D G B E) - 'Untitled'

   Intro ( Fast Drums )
    Q=218
   4/4
    Gtr I
||--12---------12-(12)-------12-----|
||o---------------------------------|
||----------------------------------|
||---7----------7--(7)--------7-----|
||o---------------------------------|
||----------------------------------|
|
|   Gtr II
||----------------------------------|
||o---------------------------------|
||----------------------------------|
||----------------------------------|
||o---------------------------------|
||-----0-0-0-0------0--0-0-0----0-0-|


|-12---------12-(12)-------12-----|-12---------12-(12)-------12-----|
|---------------------------------|---------------------------------|
|---------------------------------|---------------------------------|
|--7----------7--(7)--------7-----|--7----------7--(7)--------7-----|
|---------------------------------|---------------------------------|
|---------------------------------|---------------------------------|
|
|---------------------------------|---------------------------------|
|---------------------------------|---------------------------------|
|---------------------------------|---------------------------------|
|---------------------------------|---------------------------------|
|---------------------------------|---------------------------------|
|----0-0-0-0------0--0-0-0----0-0-|----0-0-0-0------0--0-0-0----0-0-|


  1.                              2.
|-12-----12-----12-----12------||----------12-12-12-12----------12-12-12-12-||
|-----------------------------o||-------------------------------------------||
|------------------------------||-12-7-----------------12-7-----------------||
|--7------7------7------7------||-----------7--7--7--7-----------7--7--7--7-||
|-----------------------------o||-------------------------------------------||
|------------------------------||-------------------------------------------||
|
|------------------------------||-------------------------------------------||
|-----------------------------o||-------------------------------------------||
|------------------------------||-------------------------------------------||
|------------------------------||-------------------------------------------||
|-----------------------------o||-------------------------------------------||
|----0-0----0-0----0-0----0-0--||------0-0------------------0-0-------------||


    Very Fast Metal Q=210
||--12-------12---12---|-12-----12---12-----|
||o--------------------|--------------------|
||---------------------|--------------------|
||---7--------7----7---|--7------7----7-----|
||o--------------------|--------------------|
||---------------------|--------------------|
|
||---------------------|--------------------|
||o--------------------|--------------------|
||---------------------|--------------------|
||---------------------|--------------------|
||o--------------------|--------------------|
||---0-0-0-0--0-0--0-0-|--0-0-0--0-0--0-0-0-|


 1.
|-12-------12-------|--------------12--12-12----||
|-------------------|--------------------------o||
|-------------------|-7-12----------------------||
|--7--------7-------|---------------7---7--7----||
|-------------------|--------------------------o||
|-------------------|---------------------------||
|
|-------------------|---------------------------||
|-------------------|--------------------------o||
|-------------------|---------------------------||
|-------------------|---------------------------||
|-------------------|--------------------------o||
|--0-0-0-0--0-0-0-0-|------0-0-0-0-----------0--||


  2.
|-12---------12----------|-12---12-12-12-12-12-12---||
|------------------------|--------------------------||
|------------------------|--------------------------||
|--7----------7----------|--7----7--7--7--7--7--7---||
|------------------------|--------------------------||
|------------------------|--------------------------||
|
|------------------------|--------------------------||
|------------------------|--------------------------||
|------------------------|--------------------------||
|------------------------|--------------------------||
|------------------------|--------------------------||
|--0-0-0---0--0----0-0-0-|--0----0--0--0--0--0--0-0-||
|
| Gtr III
|      \1__|
|------------------------|--------------------------||
|------------[2]b4-------|-(2)\---------------------||
|-------------4b6--------|-(4)\---------------------||
|------------------------|--------------------------||
|------------------------|--------------------------||
|------x---x-------------|--------------------------||


   Pre-Verse
    N.C.                                                              Bb5
    Gtrs III, IV
      PM|   PM|   PM--|   PM|   PM            PM|   PM|   PM--|   PM|
||------------------|---------------------|-----------------|-----------------||
||o-----------------|---------------------|-----------------|----------------o||
||------------------|---------------------|-----------------|-----------------||
||------------------|---------------------|-----------------|-----------------||
||o-7-----5-----7---|---8-----7-----------|-7-----5-----7---|---8-----8-8----o||
||----0-0---0-0---0-|-0---0-0---0-3b3.5p0-|---0-0---0-0---0-|-0---0-0-6-6-----||


 1st Verse
  N.C.                                                              Bb5
    PM|   PM|   PM--|   PM|   PM            PM|   PM|   PM--|   PM|
|-----------------|---------------------|-----------------|---------------|
|-----------------|---------------------|-----------------|---------------|
|-----------------|---------------------|-----------------|---------------|
|-----------------|---------------------|-----------------|---------------|
|-7-----5-----7---|---8-----7-----------|-7-----5-----7---|---8-----8-8---|
|---0-0---0-0---0-|-0---0-0---0-3b3.5p0-|---0-0---0-0---0-|-0---0-0-6-6---|


  N.C.
    PM|   PM|   PM--|   PM|   PM
|-----------------|---------------------|
|-----------------|---------------------|
|-----------------|---------------------|
|-----------------|---------------------|
|-7-----5-----7---|---8-----7-----------|
|---0-0---0-0---0-|-0---0-0---0-3b3.5p0-|
|
|-----------------|---------------------|
|-----------------|---------------------|
|-----------------|---------------------|
|-----------------|---------------------|
|-----------------|---------------------|
|-----------------|---------------------|


                                        Bb5
    PM|   PM|   PM--|           PM-|
|-----------------|------------------------------|
|-----------------|------------------------------|
|-----------------|------------------------------|
|-----------------|------------------------------|
|-7-----5-----7---|---------8-------------8--8---|
|---0-0---0-0---0-|--0----------0----0----6--6---|
|
|                   Gtr V
|                                    ~~~~~~~~
|-----------------|-21pb22====(21)r(21)-(21)-----|
|-----------------|------------------------------|
|-----------------|------------------------------|
|-----------------|------------------------------|
|-----------------|------------------------------|
|-----------------|------------------------------|


  N.C.
       PM|     PM-|   PM--|   PM|   PM
|-----------------------|---------------------|
|-----------------------|---------------------|
|-----------------------|---------------------|
|-----------------------|---------------------|
|---7------5--------7---|---8-----7-----------|
|------0-0-----0--0---0-|-0---0-0---0-3b3.5p0-|
|
|              >
|   ~~~~
|-(21)-------(21)-------|---------------------|
|-----------------------|---------------------|
|-----------------------|---------------------|
|-----------------------|---------------------|
|-----------------------|---------------------|
|-----------------------|---------------------|


                            Bb5
    PM|   PM|   PM--|   PM|
|-----------------|---------------|
|-----------------|---------------|
|-----------------|---------------|
|-----------------|---------------|
|-7-----5-----7---|---8-----8-8---|
|---0-0---0-0---0-|-0---0-0-6-6---|
|
|-----------------|---------------|
|-----------------|---------------|
|-----------------|---------------|
|-----------------|---------------|
|-----------------|---------------|
|-----------------|---------------|


  N.C.                                                              Bb5
    PM|   PM|   PM--|   PM|   PM            PM|   PM|   PM--|   PM|
|-----------------|---------------------|-----------------|---------------||
|-----------------|---------------------|-----------------|---------------||
|-----------------|---------------------|-----------------|---------------||
|-----------------|---------------------|-----------------|---------------||
|-7-----5-----7---|---8-----7-----------|-7-----5-----7---|---8-----8-8---||
|---0-0---0-0---0-|-0---0-0---0-3b3.5p0-|---0-0---0-0---0-|-0---0-0-6-6---||


 1st Chorus
  $
  $$
                                                      A5   D5     C5   B5
  PM----------------------------------------------|
|-------------------------|-------------------------|-----------|-----------|
|-------------------------|-------------------------|-----------|-----------|
|-------------------------|-------------------------|-----------|-----------|
|-------------------------|-------------------------|-2----7----|-5----4----|
|-0-0-0-0-0-0-0-0-0-0-0-0-|-0-0-0-0-0-0-0-0-0-0-0-0-|-0----5----|-3----2----|
|-------------------------|-------------------------|-----------|-----------|


                                                                  To Coda
                                                                  To Coda
                                                      A5   B5     C5   D5
  PM----------------------------------------------|
|-------------------------|-------------------------|-----------|------------||
|-------------------------|-------------------------|-----------|------------||
|-------------------------|-------------------------|-----------|------------||
|-------------------------|-------------------------|-2----4----|-5----7-----||
|-0-0-0-0-0-0-0-0-0-0-0-0-|-0-0-0-0-0-0-0-0-0-0-0-0-|-0----2----|-3----5-----||
|-------------------------|-------------------------|-----------|------------||


 2nd Verse
  N.C.                                                              Bb5
    PM|   PM|   PM--|   PM|   PM            PM|   PM|   PM--|   PM|
|-----------------|---------------------|-----------------|---------------|
|-----------------|---------------------|-----------------|---------------|
|-----------------|---------------------|-----------------|---------------|
|-----------------|---------------------|-----------------|---------------|
|-7-----5-----7---|---8-----7-----------|-7-----5-----7---|---8-----8-8---|
|---0-0---0-0---0-|-0---0-0---0-3b3.5p0-|---0-0---0-0---0-|-0---0-0-6-6---|


  N.C.
    PM|   PM|   PM--|   PM|   PM
|-----------------|---------------------|
|-----------------|---------------------|
|-----------------|---------------------|
|-----------------|---------------------|
|-7-----5-----7---|---8-----7-----------|
|---0-0---0-0---0-|-0---0-0---0-3b3.5p0-|
|
|-----------------|---------------------|
|-----------------|---------------------|
|-----------------|---------------------|
|-----------------|---------------------|
|-----------------|---------------------|
|-----------------|---------------------|


                                   Bb5
    PM|   PM|   PM--|       PM|
|-----------------|-------------------------|
|-----------------|-------------------------|
|-----------------|-------------------------|
|-----------------|-------------------------|
|-7-----5-----7---|-------8----------8--8---|
|---0-0---0-0---0-|--0------0---0----6--6---|
|
|                   Gtr V
|                               ~~~~~~~~
|-----------------|-21b22-----(21)-(21)-----|
|-----------------|-------------------------|
|-----------------|-------------------------|
|-----------------|-------------------------|
|-----------------|-------------------------|
|-----------------|-------------------------|


  N.C.
       PM|   PM|   PM--|     PM|     PM
|--------------------|-------------------------|
|--------------------|-------------------------|
|--------------------|-------------------------|
|--------------------|-------------------------|
|---7------5-----7---|-----8------7------------|
|------0-0---0-0---0-|-0-----0-0-----0-3b3.5p0-|
|
|                      \2_________/
|   ~~~~                          ~~~~~~~~~~~~~~
|-(21)---------------|-------------------------|
|--------------------|-------------------------|
|--------------------|-------------------------|
|--------------------|-------------------------|
|--------------------|-------------------------|
|--------------------|-0---------(0)-----------|


                              Bb5
      PM|   PM|   PM--|   PM|
|-------------------|---------------|
|-------------------|---------------|
|-------------------|---------------|
|-------------------|---------------|
|--7------5-----7---|---8-----8-8---|
|-----0-0---0-0---0-|-0---0-0-6-6---|
|
|  >
|~~~~~
|-------------------|---------------|
|-------------------|---------------|
|-------------------|---------------|
|-------------------|---------------|
|-------------------|---------------|
|-(0)---------------|---------------|


                                                            D.S. al Coda
  N.C.                                                              Bb5
    PM|   PM|   PM--|   PM|   PM            PM|   PM|   PM--|   PM|
|-----------------|---------------------|-----------------|---------------||
|-----------------|---------------------|-----------------|---------------||
|-----------------|---------------------|-----------------|---------------||
|-----------------|---------------------|-----------------|---------------||
|-7-----5-----7---|---8-----7-----------|-7-----5-----7---|---8-----8-8---||
|---0-0---0-0---0-|-0---0-0---0-3b3.5p0-|---0-0---0-0---0-|-0---0-0-6-6---||


 Bridge
  &
  B5
  Gtr III
    PM|    PM|   PM--|      PM|     PM
|------------------|-----------------------|
|------------------|-----------------------|
|------------------|-----------------------|
|------------------|---[10]-----[9]--------|
|-9-----10-----9---|------------------9h10-|
|---7-7----7-7---7-|-7------7-7-----7------|
|
| Gtr IV
|------------------|-----------------------|
|------------------|-----------------------|
|------------------|-----------------------|
|------------------|-----------------------|
|-9----------------|-----------------------|
|-7----------------|-----------------------|


    PM|    PM|   PM       PM|     PM|    PM
|------------------|-----------------------|
|------------------|-----------------------|
|------------------|-----------------------|
|------------------|-[10]-----[9]----------|
|-9-----10-----9---|------------------10---|
|---7-7----7-7---8-|------8-8-----8-8----7-|
|
|------------------|-----------------------|
|------------------|-----------------------|
|------------------|-----------------------|
|------------------|-----------------------|
|------------------|-----------------------|
|------------------|-----------------------|


  N.C.
    PM|    PM|   PM--|      PM|     PM
|------------------|-----------------------|
|------------------|-----------------------|
|------------------|-----------------------|
|------------------|---[10]-----[9]--------|
|-9-----10-----9---|------------------9h10-|
|---7-7----7-7---7-|-7------7-7-----7------|
|
|------------------|-----------------------|
|------------------|-----------------------|
|------------------|-----------------------|
|------------------|-----------------------|
|------------------|-----------------------|
|------------------|-----------------------|


    PM|    PM|   PM       PM|     PM|    PM
|------------------|-----------------------|
|------------------|-----------------------|
|------------------|-----------------------|
|------------------|-[10]-----[9]----------|
|-9-----10-----9---|------------------10---|
|---7-7----7-7---8-|------8-8-----8-8----7-|
|
|------------------|-----------------------|
|------------------|-----------------------|
|------------------|-----------------------|
|------------------|-----------------------|
|------------------|-----------------------|
|------------------|-----------------------|


    N.C.
      PM|    PM|   PM--|      PM|     PM
||-------------------|-----------------------|
||o------------------|-----------------------|
||-------------------|-----------------------|
||-------------------|---[10]-----[9]--------|
||o-9-----10-----9---|------------------9h10-|
||----7-7----7-7---7-|-7------7-7-----7------|
|
|   PM----------------------------------------
||-------------------|-----------------------|
||o------------------|-----------------------|
||-------------------|-----------------------|
||-------------------|-----------------------|
||o-2-2-2--2-2-2-2-2-|-2---2--2-2--2--2-2--2-|
||-------------------|-----------------------|


    PM|    PM|   PM       PM|     PM|    PM
|------------------|-------------------------||
|------------------|------------------------o||
|------------------|-------------------------||
|------------------|-[10]-----[9]------------||
|-9-----10-----9---|------------------10----o||
|---7-7----7-7---8-|------8-8-----8-8----7---||
|
|----------------------------------------|
|------------------|-------------------------||
|------------------|------------------------o||
|------------------|-------------------------||
|------------------|-------------------------||
|-2-2-2--2-2-2-2-3-|---3--3-3--3--3-3--3-3--o||
|------------------|-------------------------||


                                          G5
    Gtrs III, IV
    PM----------------------------------|
||--------------------------|----------------------|
||o-------------------------|----------------------|
||--------------------------|----------------------|
||--------------------------|----------------------|
||o-------------------------|-------------5-5-(5)--|
||--2-2-2-2-2-2-2-2-2-2-2-2-|-2-2-2-2-2-2-3-3-(3)--|


                                      G5    A5
  PM--------------------------------|
|-------------------------|---------------------------||
|-------------------------|--------------------------o||
|-------------------------|---------------------------||
|-------------------------|---------------------------||
|-------------------------|-----------5-(5)-7-(7)----o||
|-2-2-2-2-2-2-2-2-2-2-2-2-|-2-2-2-2-2-3-(3)-5-(5)-----||


                                          Bb5
    PM----------------------------------|
||--------------------------|----------------------|
||o-------------------------|----------------------|
||--------------------------|----------------------|
||--------------------------|----------------------|
||o-------------------------|-------------8-8-(8)--|
||--5-5-5-5-5-5-5-5-5-5-5-5-|-5-5-5-5-5-5-6-6-(6)--|


                                      Bb5   C5
  PM--------------------------------|
|-------------------------|-----------------------------||
|-------------------------|----------------------------o||
|-------------------------|-----------------------------||
|-------------------------|-----------------------------||
|-------------------------|-----------8-(8)-10-(10)----o||
|-5-5-5-5-5-5-5-5-5-5-5-5-|-5-5-5-5-5-6-(6)--8--(8)-----||


  N.C.
|-------------------------|-------------------------|
|-------------------------|-------------------------|
|-------------------------|-------------------------|
|-------------------------|-------------------------|
|-------------------------|-------------------------|
|-5-5-5-5-5-6-6-6-6-8-8-8-|-8-5-5-5-5-5-6-6-6-8-8-8-|


|-------------------------|----------------------------|
|-------------------------|----------------------------|
|-------------------------|----------------------------|
|-------------------------|----------------------------|
|-------------------------|----------------------------|
|-5-5-5-5-5-6-6-6-6-8-8-8-|-8-5-5-5-5-5-6-6-6-8-8-8----|


  N.C.
  TPTPTPTPTPTP  TPTPTPTPTPTP
|-------------|-------------|
|-------------|-------------|
|-------------|-------------|
|-------------|-------------|
|-------------|-------------|
|-5-6-8-5-6-8-|-5-6-8-5-6-8-|


|-------------------------|-------------------------||
|-------------------------|-------------------------||
|-------------------------|-------------------------||
|-------------------------|-------------------------||
|-------------------------|-------------------------||
|-5-6-8-5-6-8-5-6-8-5-6-8-|-5-6-8-5-6-8-5-6-8-8-8-8-||


 Guitar Solo
  Slower Q=150
  N.C.
  Gtr V
|---------------------------------------17p14-------|
|------------14p10-------------------14-------14----|
|---------11-------11-------------14-------------14-|
|------11-------------11-------16-------------------|
|-9h12-------------------12h16----------------------|
|---------------------------------------------------|
|
| Gtrs III, IV
|---------------------------------------------------|
|---------------------------------------------------|
|---------------------------------------------------|
|---------------------------------------------------|
|-9-------------------------------------------------|
|---------------------------------------------------|


|-------------21p17-------------------------------22p17----------------|
|----------19-------19-------------------------19-------19-------------|
|-------18-------------18-------------------19-------------19----------|
|-16h19-------------------19-------------19-------------------19-16----|
|----------------------------16----16h17----------------------------17-|
|-------------------------------17-------------------------------------|
|
|----------------------------------------------------------------------|
|----------------------------------------------------------------------|
|----------------------------------------------------------------------|
|----------------------------------------------------------------------|
|----------------------------------------------------------------------|
|----------------------------------------------------------------------|


  Solo Tempo Q=200
                \1/  \1/           \1/  \1/         \1/  \1/
                                                         ~~~~~
|------------------------|-----------------------------------|
|------------------------|-----------------------------------|
|------------------------|-----------------------------------|
|------------------------|-----------------------------------|
|-16h==========17p==16---|-(16)h==17p==16---(16)p==14h==16---|
|------------------------|-----------------------------------|
|
|    PM|   PM|       PM----|       PM--|
|------------------------|-----------------------------------|
|------------------------|-----------------------------------|
|------------------------|--------------------6p=4-----------|
|--6-----7------6--------|------7-------------------7p===4---|
|----4-4---4-4-------4---|---4-----4----4--------------------|
|------------------------|-----------------------------------|


                                 B5   D5
                       \2_________/      |
 ~~~~~~
|--------------------|-----------------------|
|--------------------|-----------------------|
|--------------------|-----------------------|
|--------------------|-0---------(0)----(0)--|
|-(16)---------------|-----------------------|
|--------------------|-----------------------|
|
|      PM|   PM|   PM--|     PM|
|--------------------|-----------------------|
|--------------------|-----------------------|
|--------------------|-----------------------|
|---6------7-----6---|-----7------4---7------|
|------4-4---4-4---4-|-4-----4-4--2---5------|
|--------------------|-----------------------|


                \1/  \1/           \1/  \1/         \1/  \1/
   ~~                                                    ~~~~~
|------------------------|-----------------------------------|
|-14-----------15p==14---|-(14)h==15p==14---(14)s==12h==14---|
|------------------------|-----------------------------------|
|------------------------|-----------------------------------|
|------------------------|-----------------------------------|
|------------------------|-----------------------------------|
|
|    PM|   PM|       PM----|       PM--|
|------------------------|-----------------------------------|
|------------------------|-----------------------------------|
|------------------------|--------------------6p=4-----------|
|--6-----7------6--------|------7-------------------7p===4---|
|----4-4---4-4-------4---|---4-----4----4--------------------|
|------------------------|-----------------------------------|


                                     B5    D5
                            \2          |
 ~~~~~~
|--------------------|-/21\--------------------|
|-(14)---------------|------0--(0)-----(0)-----|
|--------------------|-------------------------|
|--------------------|-------------------------|
|--------------------|-------------------------|
|--------------------|-------------------------|
|
|      PM|   PM|   PM--|        PM-|
|--------------------|-------------------------|
|--------------------|-------------------------|
|--------------------|-------------------------|
|---6------7-----6---|------7--------4-----7---|
|------4-4---4-4---4-|---4------4--4-2-----5---|
|--------------------|-------------------------|


                                       1.
    N.C.
      PM|   PM|   PM------------|          PM|    PM|    PM
||------------------|-----------------|--------------------|
||o-----------------|-----------------|--------------------|
||------------------|-----------------|--------------------|
||--7-----9-----7---|-------------7-9-|-11-----12-----11---|
||o---9-9---9-9---9-|-9-9-9-9-9-9-----|----9-9----9-9----9-|
||------------------|-----------------|--------------------|
|
|     PM|   PM|   PM--|   PM|              PM|    PM|    PM
||------------------|-----------------|--------------------|
||o-----------------|-----------------|--------------------|
||------------------|-----------------|--------------------|
||------------------|---------4p2-----|--------------------|
||o-4-----5-----4---|---5---------5p2-|--4------5------4---|
||----2-2---2-2---2-|-2---2-2---------|----2-2----2-2----2-|


                      2.
          E5
  PM  PM|   PM  PM       PM|    PM|
|------------------||-------------------------|
|-----------------o||-------------------------|
|------------------||-------------------------|
|---9-----7---6----||-11-----12-------------9-|
|-9---9-9---9---9-o||----9-9----9-9-9h11h12---|
|------------------||-------------------------|
|
| PM  PM|                PM|    PM|       PM
|------------------||-------------------------|
|-----------------o||-------------------------|
|------------------||-------------------------|
|------------------||-------------------------|
|---5-----2---2---o||--4------5-----4---------|
|-2---2-2-0---0----||----2-2----2-2-------2---|


                    E5
                     ~~                                            ~~~~
|-------------------17-----|-17\-----------14h17p|=14\-----------------|
|----------------16--------|---------------------|---------------/14---|
|-------------16-----------|---------------------|---------------------|
|-11\------16--------------|---------------------|---------------------|
|--------------------------|---------------------|---------------------|
|-------14-----------------|---------------------|---------------------|
|
|  PM    PM|                     PM|   PM|     PM--|     PM|
|--------------------------|---------------------|---------------------|
|--------------------------|---------------------|---------------------|
|--------------------------|---------------------|---------------------|
|--------------------------|---------------------|-----------4p2-------|
|-----5--------------2--2--|--4------5------4----|-----5-----------5p2-|
|--2-----2--2--------0--0--|-----2-2---2-2-----2-|--2----2-2-----------|


   \1/     \1/     \1/    \1/     \1/     \1/
|-14-----(14)------------14-----(14)--------------|
|-14-----(14)----(14)----14-----(14)----(14)------|
|-------------------------------------------------|
|-------------------------------------------------|
|-------------------------------------------------|
|-------------------------------------------------|
|
|      PM------|          PM--|               PM
|-------------------------------------------------|
|-------------------------------------------------|
|-------------------------------------------------|
|-------------------------------------------------|
|--4-------------------5--------------4-----------|
|------2-------2----------2---2---------------2---|


                         E5
   \1/     \1/     \1/     \1/
|--------------------------------------|------------------------|
|-17-----(17)----(17)----(17)\----/17\-|----14-------17---------|
|--------------------------------------|-14----14-16------16s18-|
|--------------------------------------|------------------------|
|--------------------------------------|------------------------|
|--------------------------------------|------------------------|
|
|  PM          PM------|                     PM|      PM|     PM
|--------------------------------------|------------------------|
|--------------------------------------|------------------------|
|--------------------------------------|------------------------|
|--------------------------------------|------------------------|
|------5-------------------2----2------|--4--------5-------4----|
|--2-----------2-------2---0----0------|-----2--2-----2-2-----2-|


|-----------------------------------|
|-19-19-------19-19---18-19-19---19-|
|-------16s18-----------------------|
|-----------------------------------|
|-----------------------------------|
|-----------------------------------|
|
|  PM    PM|
|-----------------------------------|
|-----------------------------------|
|-----------------------------------|
|--------------4p===2---------------|
|-----5-------------------5p===2----|
|--2-----2--2-----------------------|


                                                         E5
                                                 ~~
|---------------------------------------------|--------------------|
|-19-19------19-19----------------------------|--------------------|
|---------18---------18-18-18------18-18------|--------------------|
|-------------------------------19---------19-|-16----------(16)\--|
|---------------------------------------------|--------------------|
|---------------------------------------------|--------------------|
|
|       PM---|           PM---|          PM-----|    PM|
|---------------------------------------------|--------------------|
|---------------------------------------------|--------------------|
|---------------------------------------------|--------------------|
|---------------------------------------------|--------------------|
|--4---------------5----------------4---------|----5-----2----2----|
|-------2-----2----------2----2----------2----|--2---2-2-0----0----|


  C#5                                      C#5
  Gtr V                   Gtrs V, VI
   ~~
|-----------------------|----------22pb24==(22)r-----|
|-----------------------|----------------------------|
|-/6-------------/18-19-|-18-------------------------|
|-----------------------|----------------------------|
|-----------------------|----------------------------|
|-----------------------|----------------------------|
|
|    PM|   PM|     PM-----|    PM|
|-----------------------|----------------------------|
|-----------------------|----------------------------|
|-----------------------|----------------------------|
|--6-----6-----6--------|----6---------------6----6--|
|--4-4-4-4-4-4-4---4----|--4-4-4-4-----------4----4--|
|-----------------------|----------------------------|


         B5                             B5
                                ~~
|-21b23==(21)r==========21---|-19-------------|
|----------------------------|----------------|
|----------------------------|----------------|
|----------------------------|----------------|
|----------------------------|----------------|
|----------------------------|----------------|
|
|             PM|   PM|    PM--|    PM|
|----------------------------|----------------|
|----------------------------|----------------|
|----------------------------|----------------|
|----------4------4------4---|----4-----4--4--|
|----------2--2-2-2-2-2--2-2-|--2-2-2-2-2--2--|
|----------------------------|----------------|


  A5
  Gtr V
|-----------14-------14h16h17p16-|
|-/14-16-17----16-17-------------|
|--------------------------------|
|--------------------------------|
|--------------------------------|
|--------------------------------|
|
|      PM|      PM|         PM----
|--------------------------------|
|--------------------------------|
|--------------------------------|
|---2--------2--------2----------|
|---0--0--0--0--0--0--0-----0----|
|--------------------------------|


                         A5
|-14------14-------------14----------16----16s=|
|----17------17p16p15h16----17p16-14----16-----|
|----------------------------------------------|
|----------------------------------------------|
|----------------------------------------------|
|----------------------------------------------|
|
|-|           PM---|
|----------------------------------------------|
|----------------------------------------------|
|----------------------------------------------|
|-------2-----------------2--------2-----------|
|--0----0-----0-----0-----0--------0-----------|
|----------------------------------------------|


  B5                                                              E5
                                                                   ~~
|-21-19p16---16----16-21-19p16-16-------|-------------16h19p16-----------|
|---------------17----------------------|----------17----------17--------|
|---------------------------------18\---|-------18----------------16-----|
|---------------------------------------|----18--------------------------|
|---------------------------------------|-16-----------------------------|
|---------------------------------------|--------------------------------|
|
|     PM---|           PM|            PM--|            PM---|
|---------------------------------------|--------------------------------|
|---------------------------------------|--------------------------------|
|---------------------------------------|--------------------------------|
|--4-------------4--------------4-------|--------4-----------------9--9--|
|--2--2----2-----2-----2--2-----2-----2-|--2-----2-----2-----2-----7--7--|
|---------------------------------------|--------------------------------|


          C#5                                C#5
  Gtrs V, VI
                                     ~~
|-21pb24==(21)r============21pb22r|=19-------------|
|---------------------------------|----------------|
|---------------------------------|----------------|
|---------------------------------|----------------|
|---------------------------------|----------------|
|---------------------------------|----------------|
|
|              PM|   PM|    PM------|    PM|
|---------------------------------|----------------|
|---------------------------------|----------------|
|---------------------------------|----------------|
|-----------6------6-----6--------|----6-----6--6--|
|-----------4--4-4-4-4-4-4--4-----|--4-4-4-4-4--4--|
|---------------------------------|----------------|


  B5                                                     B5
|-----19pb20-(19)---19---18-------------|-----------------------------|
|-----------------------------17--------|-----------------------------|
|----------------------------------16S==|=13--------------------------|
|---------------------------------------|------14---------------------|
|---------------------------------------|-----------14---(14)---------|
|---------------------------------------|---------------------12---11-|
|
|   PM------------|       PM|         PM--|       PM---|
|---------------------------------------|-----------------------------|
|---------------------------------------|-----------------------------|
|---------------------------------------|-----------------------------|
|-4--------------------4---------4------|----4-------------4-----4----|
|-2-2-------------2----2--2-2----2----2-|--2-2----2----2---2-----2----|
|---------------------------------------|-----------------------------|


  A5
  Gtr V
          PM---------------
|-------------------------|
|-------------------------|
|-------------------------|
|-------------------------|
|-----------------7-7-9-9-|
|-9-------7-7-9-9---------|
|
|   PM|   PM--|       PM---
|-------------------------|
|-------------------------|
|-------------------------|
|-2-----2---------2-------|
|-0-0-0-0-0---0---0---0---|
|-------------------------|


                               A5
 --------------------|
|-----------------------------------------------------------|
|-----------------------------------------------------------|
|------------------------------------------9-9-11-11-12-13--|
|-------------------------9-11-11-11-12-12------------------|
|-9-11-11---9-9-9-11-12-------------------------------------|
|-----------------------------------------------------------|
|
|-|             PM------|
|-----------------------------------------------------------|
|-----------------------------------------------------------|
|-----------------------------------------------------------|
|---------2---------------------2------------2--------------|
|-0-------0-----0-------0-------0------------0--------------|
|-----------------------------------------------------------|

[ Tab from: http://www.guitartabs.cc/tabs/j/judas_priest/pain_killer_tab.html ]
  A5
|----------------------------------14-17-14-14-16-16-|
|-------------------------12-14-17-------------------|
|-12p11p9----9-11-12s==13----------------------------|
|---------11-----------------------------------------|
|----------------------------------------------------|
|----------------------------------------------------|
|
|          PM|                PM---|            PM----
|----------------------------------------------------|
|----------------------------------------------------|
|----------------------------------------------------|
|--2-----------------2--------------------2----------|
|--0-------0-0-------0--------0-----0-----0-----0----|
|----------------------------------------------------|


                                   B5
|-------------------19----19-------------19-21-19-19------|
|-19-19-19-19-19h21----21----19h21-21-21-------------21\--|
|---------------------------------------------------------|
|---------------------------------------------------------|
|---------------------------------------------------------|
|---------------------------------------------------------|
|
|-|                  PM------|
|---------------------------------------------------------|
|---------------------------------------------------------|
|---------------------------------------------------------|
|-----------2-----------------------4-----------------4---|
|--0--------0--------0--------0-----2-----------------2---|
|---------------------------------------------------------|


  C#5
           T          T          T
|------------14h17h==21p17p14-----------------|
|-14h17h==21--------------------21p17p14------|
|------------------------------------------18-|
|---------------------------------------------|
|---------------------------------------------|
|---------------------------------------------|
|
|       PM---|           PM---|          PM----
|---------------------------------------------|
|---------------------------------------------|
|---------------------------------------------|
|--6---------------6----------------6---------|
|--4----4-----4----4-----4----4-----4----4----|
|---------------------------------------------|


                        C#5
           T          T        T        T
|------------14h17h==21p17p14--------------|
|-14h17h==21------------------21p17p14-----|
|------------------------------------------|
|--------------------------------------18p=|
|------------------------------------------|
|------------------------------------------|
|
|-|           PM---|
|------------------------------------------|
|------------------------------------------|
|------------------------------------------|
|-------6----------------6--------6--------|
|--4----4-----4----4-----4--------4--------|
|------------------------------------------|


  B5                                                      B5
           T          T          T                ~~~~~~~~~~~~
|-----------------------------------------------|-----------------|
|-----------------------------------------------|-----------------|
|------------11h14h==18p14p11-------------------|-----------------|
|-11h14h==18--------------------18p14p11---(11)-|-----------------|
|-----------------------------------------------|-----------------|
|-----------------------------------------------|-9-------(9)-----|
|
|       PM---|           PM---|          PM-------|   PM|
|-----------------------------------------------|-----------------|
|-----------------------------------------------|-----------------|
|-----------------------------------------------|-----------------|
|--4---------------4----------------4-----------|---4------4---4--|
|--2----2-----2----2-----2----2-----2----2------|-2-2-2-2--2---2--|
|-----------------------------------------------|-----------------|


  A5                                   A5
                                             Gtrs V
                             PM-----------|
|-------------------------|-----------------------|
|-------------------------|-----------------------|
|-11b14-------(11)---9----|-11----9-11-11-11-11p9-|
|----------------------11-|----11-----------------|
|-------------------------|-----------------------|
|-------------------------|-----------------------|
|
|       PM|     PM-|    PM--|     PM|
|-------------------------|-----------------------|
|-------------------------|-----------------------|
|-------------------------|-----------------------|
|--2--------2--------2----|-----2-------2-----2---|
|--0----0-0-0---0--0-0--0-|--0--0-0--0--0-----0---|
|-------------------------|-----------------------|


  B5                                                  E5
 , VI
                                             ~~~
|-----------------------------------------|------------------|
|--------[9]------------------------------|------------------|
|-[11]-9-----9-[11]b13r(11)b13r(11)-9p8---|-(8)--------------|
|-----------------------------------------|------------------|
|-----------------------------------------|------------------|
|-----------------------------------------|------------------|
|
|      PM|       PM------------|        PM--|     PM|
|-----------------------------------------|------------------|
|-----------------------------------------|------------------|
|-----------------------------------------|------------------|
|---4--------4------------------------4---|-----4-----9--9---|
|---2--2--2--2---2---------------2----2-2-|--2--2-2-2-7--7---|
|-----------------------------------------|------------------|


     C#5                             C#5
|-21-(21)---------------|-(21)-------22b24==(22)r-----|
|-----------------------|-----------------------------|
|-----------------------|-----------------------------|
|-----------------------|-----------------------------|
|-----------------------|-----------------------------|
|-----------------------|-----------------------------|
|
|         PM|   PM|   PM--|      PM|
|-----------------------|-----------------------------|
|-----------------------|-----------------------------|
|-----------------------|-----------------------------|
|------6------6-----6---|------6--------------6----6--|
|------4--4-4-4-4-4-4-4-|---4--4-4-4----------4----4--|
|-----------------------|-----------------------------|


          B5                                                            B5
            ~~~~~               ~~~~~                 ~~~~~               ~~~~~
|-22pb23==(22)r-------22pb26==(22)r-------|-22pb24==(22)r-------22pb23==(22)r-------|
|-----------------------------------------|-----------------------------------------|
|-----------------------------------------|-----------------------------------------|
|-----------------------------------------|-----------------------------------------|
|-----------------------------------------|-----------------------------------------|
|-----------------------------------------|-----------------------------------------|
|
|               PM|             PM--|   PM----------|       PM|
|-----------------------------------------|-----------------------------------------|
|-----------------------------------------|-----------------------------------------|
|-----------------------------------------|-----------------------------------------|
|-----------4-------4-----------------4---|---------------4---------------4----4----|
|-----------2---2-2-2-----------2---2-2-2-|-----------2---2-2-2-----------2----2----|
|-----------------------------------------|-----------------------------------------|


  A5                                 A5
   ~~                      TP   TP     TP     TP
|-21-----(21)\----------|--------------------------|
|------------------/7s==|=12s==10\---(10)\--(10)\--|
|------------------/8s==|=13s==11\---(11)\--(11)\--|
|-----------------------|--------------------------|
|-----------------------|--------------------------|
|-----------------------|--------------------------|
|
|    PM|       PM|    PM--|     PM-|
|-----------------------|--------------------------|
|-----------------------|--------------------------|
|-----------------------|--------------------------|
|--2-------2--------2---|----2---------2------2----|
|--0-0-0---0---0-0--0-0-|--0-0--0--0---0------0----|
|-----------------------|--------------------------|


  G#5                       B5
                  Gtr V
|-/20-----------|---------------------|
|---------------|---------------------|
|---------------|-6b9==(6)r=======(6)-|
|---------------|---------------------|
|---------------|---------------------|
|---------------|---------------------|
|
|---------------|---------------------|
|---------------|---------------------|
|---------------|---------------------|
|---------------|-----------4---------|
|---6-----------|-----------2---------|
|---4--0--2--3--|-------4-------------|


               /   |
                          ~~~
|---------------------|-/16---------------|
|-0-----------(0)-(0)-|-------------------|
|---------------------|-------------------|
|---------------------|-------------------|
|---------------------|-------------------|
|---------------------|-------------------|
|
|   PM|   PM|      PM---|     PM|
|---------------------|-------------------|
|---------------------|-------------------|
|---------------------|-------------------|
|---------------------|-----------6p4-7p4-|
|-6-----7------6------|-----7-----6p4-7p4-|
|---4-4---4-4------4--|---4---4-4---------|


                                      F#5A5
                              ~~~
|---------17b18---17b18---|-/16--------------|
|-------------------------|------------------|
|-------------------------|------------------|
|-------------------------|------------------|
|-x-----------------------|------------------|
|-------------------------|------------------|
|
|   PM|    PM---|       PM--|     PM|
|-------------------------|------------------|
|-------------------------|------------------|
|-------------------------|------------------|
|-------------------------|------------------|
|-6-----7----------6------|-----7-----4--7---|
|---4-4----4----4-------4-|---4---4-4-2--5---|


                                                                  F#5A5
    PM  PM--|   PM--|   PM|   PM      ~
|-----------------|-----------------|-----------------|------------------|
|-4-----5-----4---|-----------------|-----------------|------------------|
|-----------------|---6-----6---4h6-|-4---------------|-(4)--------------|
|---6-6---6-6---6-|-6---6-6---6-----|-----------------|------------------|
|-----------------|-----------------|-----------------|------------------|
|-----------------|-----------------|-----------------|------------------|
|
|   PM|   PM|   PM--|   PM|             PM|   PM|   PM--|     PM|
|-----------------|-----------------|-----------------|------------------|
|-----------------|-----------------|-----------------|------------------|
|-----------------|-----------------|-----------------|------------------|
|-----------------|---------6p4-7p4-|-----------------|------------------|
|-6-----7-----6---|---7-----6p4-7p4-|-6-----7-----6---|-----7-----4--7---|
|---4-4---4-4---4-|-4---4-4---------|---4-4---4-4---4-|--4----4-4-2--5---|


  \4_____________________/               |
|---------------------|---------------------|
|---------------------|---------------------|
|-0---------(0)-------|-(0)-------------(0)-|
|---------------------|---------------------|
|---------------------|---------------------|
|---------------------|---------------------|
|
|     PM|    PM-|   PM--|     PM|
|---------------------|---------------------|
|---------------------|---------------------|
|---------------------|---------------------|
|---------------------|-----------6p4-7p=4--|
|-6-------7-------6---|-----7-----6p4-7p=4--|
|-----4-4----4--4---4-|--4----4-4-----------|


                                   F#5  A5
       \4_____/                     |
|----------------------|----------------------|
|----------------------|----------------------|
|----------------------|----------------------|
|----------------------|----------------------|
|-----(2)----(2)-------|-(2)-------(2)--------|
|------0-----(0)-------|-(0)-------(0)--4h6h7-|
|
|   PM|       PM-|   PM--|     PM|
|----------------------|----------------------|
|----------------------|----------------------|
|----------------------|----------------------|
|----------------------|----------------------|
|-6--------7-------6---|-----7------4---7-----|
|---4--4------4--4---4-|--4----4-4--2---5-----|


  N.C.
|---------------------------------|----------------------------------|
|---------------------------------|----------------------------------|
|---------------------------------|-4-6h==8-6-4-------------6-8h==9--|
|-------------------------4-6---8-|---------------8-6h8h==9----------|
|-4h6h==7-6-4-----4h6h==7---------|----------------------------------|
|---------------7-----------------|----------------------------------|
|
|     PM--|       PM--|       PM----|       PM--|       PM      PM
|---------------------------------|----------------------------------|
|---------------------------------|----------------------------------|
|---------------------------------|----------------------------------|
|---------------------------------|----------------------------------|
|-6-----------7-----------6-------|-----7-----------6-------7--------|
|-----4---4-------4---4-------4---|-4-------4---4-------4-------4----|


                                H=H
  G#5                           A5          G#5      F#5      G#5
        TPTP                                                    ~~~~
|--------------------19h21p19-|----------19h21p19------21b23==(21)----||
|--------------19-21----------|-21p19h21----------21------------------||
|-4-6h8-xsx-20----------------|---------------------------------------||
|-----------------------------|---------------------------------------||
|-----------------------------|---------------------------------------||
|-----------------------------|---------------------------------------||
|
|-----------------------------|---------------------------------------||
|-----------------------------|---------------------------------------||
|-----------------------------|---------------------------------------||
|-----------------------------|---------------------------------------||
|-6---------------------------|--7-----------6-------4----------6-----||
|-4---------------------------|--5-----------4-------2----------4-----||


   3rd Verse
    Original Tempo Q=210
    N.C.                                                              Bb5
    Gtrs III, IV
      PM|   PM|   PM--|   PM|   PM            PM|   PM|   PM--|   PM|
                                                                              3x
||------------------|---------------------|-----------------|-----------------||
||o-----------------|---------------------|-----------------|----------------o||
||------------------|---------------------|-----------------|-----------------||
||------------------|---------------------|-----------------|-----------------||
||o-7-----5-----7---|---8-----7-----------|-7-----5-----7---|---8-----8-8----o||
||----0-0---0-0---0-|-0---0-0---0-3b3.5p0-|---0-0---0-0---0-|-0---0-0-6-6-----||


  N.C.
    PM|   PM|   PM--|   PM|   PM
|-----------------|---------------------|
|-----------------|---------------------|
|-----------------|---------------------|
|-----------------|---------------------|
|-7-----5-----7---|---8-----7-----------|
|---0-0---0-0---0-|-0---0-0---0-3b3.5p0-|
|
| Gtr V
|-----------------|---------------------|
|-----------------|---------------------|
|-----------------|---------------------|
|-----------------|---------------------|
|-----------------|---------------------|
|-----------------|---------------------|


                       D.S.S. al Dbl. Coda
                                   Bb5
    PM|   PM|        PM--|     PM|
|----------------------|----------------------||
|----------------------|----------------------||
|----------------------|----------------------||
|----------------------|----------------------||
|-7-----5--------7-----|-----8------8--8------||
|---0-0---0--0-------0-|-0-----0-0--6--6------||
|
|                        \2_________/      |
|----------------------|----------------------||
|----------------------|----------------------||
|------------(5)\---|----------------------||
|----------------------|----------------------||
|----------------------|-0---------(0)----(0)-||
|----------------------|----------------------||


 2nd Chorus
  &&
                                                      B5   E5     D5   C#5
  Gtrs III, IV
  PM----------------------------------------------|
|-------------------------|-------------------------|-----------|-----------|
|-------------------------|-------------------------|-----------|-----------|
|-------------------------|-------------------------|-----------|-----------|
|-------------------------|-------------------------|-4----9----|-7----6----|
|-2-2-2-2-2-2-2-2-2-2-2-2-|-2-2-2-2-2-2-2-2-2-2-2-2-|-2----7----|-5----4----|
|-------------------------|-------------------------|-----------|-----------|


                                                      B5   C#5    D5   E5
  PM----------------------------------------------|
|-------------------------|-------------------------|-----------|-----------|
|-------------------------|-------------------------|-----------|-----------|
|-------------------------|-------------------------|-----------|-----------|
|-------------------------|-------------------------|-4----6----|-7----9----|
|-2-2-2-2-2-2-2-2-2-2-2-2-|-2-2-2-2-2-2-2-2-2-2-2-2-|-2----4----|-5----7----|
|-------------------------|-------------------------|-----------|-----------|


    N.C.
      PM|    PM|   PM--|    PM|   PM
||-------------------|-------------------|
||o------------------|-------------------|
||-------------------|-------------------|
||-------------------|---10-----9--------|
||o-9-----10-----9---|--------------9h10-|
||----7-7----7-7---7-|-7----7-7---7------|


    PM|    PM|   PM     PM|   PM|
|------------------|---------------------||
|------------------|--------------------o||
|------------------|---------------------||
|------------------|-10-----9------------||
|-9-----10-----9---|--------------10s9--o||
|---7-7----7-7---7-|----8-8---8-8--------||


  N.C.
  PM-------------------------------------------------
|-------------------------|-------------------------|
|-------------------------|-------------------------|
|-------------------------|-------------------------|
|-------------------------|-------------------------|
|-------------------5-5-5-|-5-----------------5-5-5-|
|-7-7-7-7-7-8-8-8-8-------|---7-7-7-7-7-8-8-8-------|


 -------------------------------------------------|
|-------------------------|----------------------------|
|-------------------------|----------------------------|
|-------------------------|----------------------------|
|-------------------------|----------------------------|
|-------------------5-5-5-|-5-----------------5-5-5----|
|-7-7-7-7-7-8-8-8-8-------|---7-7-7-7-7-8-8-8----------|


  N.C.
  PM---------------------------------------------
|-------------------------|---------------------|
|-------------------------|---------------------|
|-------------------------|---------------------|
|-------------------------|---------------------|
|---------5-5---------5-5-|---------5-5-----5---|
|-7-7-8-8-----7-7-8-8-----|-7-7-8-8-----7-8---7-|


 ---------------------------------|
|---------------------|------------------------------|
|---------------------|------------------------------|
|---------------------|------------------------------|
|---------------------|------------------------------|
|---5-----5-----5-----|-5-----5-----5p2h3h5-5p2h3h5--|
|-8---7-8---7-8---7-8-|---7-8---7-8------------------|


    N.C.
      PM|   PM|   PM--|   PM|   PM
||------------------|---------------------|
||o-----------------|---------------------|
||------------------|---------------------|
||------------------|---------------------|
||o-7-----5-----7---|---8-----7-----------|
||----0-0---0-0---0-|-0---0-0---0-3b3.5p0-|


                            Bb5
    PM|   PM|   PM--|   PM|
|-----------------|--------------------||
|-----------------|-------------------o||
|-----------------|--------------------||
|-----------------|--------------------||
|-7-----5-----7---|---8-----8--(8)\---o||
|---0-0---0-0---0-|-0---0-0-6--(6)\----||


   Out-Chorus
    N.C.                                                              Bb5
      PM|   PM|   PM--|   PM|   PM            PM|   PM|   PM--|   PM|
                                                                              6x
||------------------|---------------------|-----------------|-----------------||
||o-----------------|---------------------|-----------------|----------------o||
||------------------|---------------------|-----------------|-----------------||
||------------------|---------------------|-----------------|-----------------||
||o-7-----5-----7---|---8-----7-----------|-7-----5-----7---|---8-----8-8----o||
||----0-0---0-0---0-|-0---0-0---0-3b3.5p0-|---0-0---0-0---0-|-0---0-0-6-6-----||


 Outro Guitar Solo
  N.C.
  Gtrs V, VI
|------------------------14----|-------------------------------|
|-17b19-----17b19-(17)------14-|-17-14-14-17-19b22==(19)r======|
|------------------------------|-------------------------------|
|------------------------------|-------------------------------|
|------------------------------|-------------------------------|
|------------------------------|-------------------------------|
|
| Gtrs III, IV
|       PM|         PM-|     PM--|      PM|
|------------------------------|-------------------------------|
|------------------------------|-------------------------------|
|------------------------------|-------------------------------|
|------------------------------|----------------------4p=2-----|
|--4---------5------------4----|-----5---------------------5p2-|
|-------2-2---------2--2-----2-|--2-----2--2-------------------|


                                                                     E5
                                                                      ~~
|--------17-15---14------------------------|---------------------------------|
|-(19)--------------17p15p14---------------|---------------------------------|
|----------------------------16p15p14------|---------------------------------|
|---------------------------------------17p|=16p14---------------------------|
|------------------------------------------|-------17p16p14------------------|
|------------------------------------------|----------------18p17p15s14------|
|
|      PM|           PM---|           PM-----|            PM---|
|------------------------------------------|---------------------------------|
|------------------------------------------|---------------------------------|
|------------------------------------------|---------------------------------|
|------------------------------------------|---------------------------------|
|---4----------5-----------------4---------|--------5-----------------2--2---|
|------2--2----------2-----2----------2----|--2-----------2-----2-----0--0---|


  N.C.
  Gtr V
  PM|
|-----------------------|-------------------------|
|-----2-----------------|-----------------2-------|
|-----2---[4]b6r(4)---2-|-[2]-[4]-[4]-[4]-2-------|
|-4-4---------------4---|-------------------------|
|-----------------------|-------------------------|
|-----------------------|-------------------------|
|
|   PM|    PM---|     PM--|        PM-|
|-----------------------|-------------------------|
|-----------------------|-------------------------|
|-----------------------|-------------------------|
|-----------------------|-----------------4p2-----|
|-4-----5-----------4---|------5--------------5p2-|
|---2-2----2-----2----2-|--2-------2---2----------|


                                                                  E5
                                                                    ~~~~~
|------------------------------------|---------------------22b24==(22)r-------|
|-8p7p==0-3p2-3p0-15p14p==0-10p7p==0-|-20p19p==0-15h17p==0--------------------|
|------------------------------------|----------------------------------------|
|------------------------------------|----------------------------------------|
|------------------------------------|----------------------------------------|
|------------------------------------|----------------------------------------|
|
|     PM--|        PM---|        PM----|          PM---|
|------------------------------------|----------------------------------------|
|------------------------------------|----------------------------------------|
|------------------------------------|----------------------------------------|
|------------------------------------|----------------------------------------|
|-4-----------5--------------4-------|-------5----------------------2----2----|
|-----2---2--------2----2--------2---|--2---------2----2------------0----0----|


  N.C.
   \1/  \1/  \1/  \1/  \1/  \1/
                                 TP~
|-------------------------------------|-----------------2--------------------|
|-------------------------------------|---------------------[5]b6-(5)\-------|
|-------------------------------------|-[4]b6-(4)---[2]----------------------|
|-------------------------------------|--------------------------------------|
|-------------------------------------|--------------------------------------|
|----------------|--------------------------------------|
|
|       PM--|          PM--|        PM--------|      PM---|
|-------------------------------------|--------------------------------------|
|-------------------------------------|--------------------------------------|
|-------------------------------------|--------------------------------------|
|-------------------------------------|----------------------------4p==2-----|
|--4--------------5--------------4----|-----------5----------------------5p2-|
|-------2----2---------2----2-------2-|--------2-----2----2------------------|


                                                          E5
|--------------------17-17h21p17----------------|-------------------|
|-----------------19-------------19-------------|-2-2---------------|
|--------------18-------------------18----------|-2-2-4-2-(2)-------|
|-----------19-------------------------19-------|-----4-2-(2)-------|
|--------21-------------------------------21\---|-------------------|
|-/17-17----------------------------------------|-------------------|
|
|      PM---|            PM------|            PM--|   PM|
|-----------------------------------------------|-------------------|
|-----------------------------------------------|-------------------|
|-----------------------------------------------|-------------------|
|-----------------------------------------------|-------------------|
|---4--------------5-----------------------4----|---5------2---2----|
|------2-----2-----------2--------2-----------2-|-2---2-2--0---0----|


  N.C.
|-----------------|-----------------|
|---------x-x-2-x-|-----------------|
|-2-x-x-4-x-x-2-x-|-x-4-x-x-2-x-4-x-|
|-2-x-x-4-----2---|-x-4-x-x-2-x-4-x-|
|-----------------|-----------------|
|-----------------|-----------------|
|
|   PM|   PM|   PM--|   PM|
|-----------------|-----------------|
|-----------------|-----------------|
|-----------------|-----------------|
|-----------------|---------4p2-----|
|-4-----5-----4---|---5---------5p2-|
|---2-2---2-2---2-|-2---2-2---------|


                                                    E5
|---------------------------------|-----------------------|
|---------------------------------|-----------------------|
|---------------------------------|-----------------------|
|---------------------------------|-----------------------|
|---------------------------------|-----------------------|
|---------|-----0--0--|
|
|      PM-|        PM-|        PM---|        PM-|
|---------------------------------|-----------------------|
|---------------------------------|-----------------------|
|---------------------------------|-----------------------|
|---------------------------------|-----------------------|
|--4-----------5-----------4------|------5----------2--2--|
|------2---2-------2---2-------2--|--2-------2---2--0--0--|


  N.C.
|---------------------------------------------------------|---------------------------------------------------------|
|---------------------------------------------------------|---------------------------------------------------------|
|---------------------------------------------------------|---------------------------------------------------------|
|---------------------------------------------------------|---------------------------------------------------------|
|---------------------------------------------------------|---------------------------------------------------------|
|-(0)-----------------------------------------------------|-(0)-----------------------------------------------------|
|
|---------------------------------------------------------|---------------------------------------------------------|
|---------------------------------------------------------|---------------------------------------------------------|
|---------------------------------------------------------|---------------------------------------------------------|
|---------------------------------------------------------|---------------------------------------------------------|
|-(2)-----------------------------------------------------|-(2)-----------------------------------------------------|
|-(0)-----------------------------------------------------|-(0)-----------------------------------------------------|
|
| Gtr II
|---------------------------------------------------------|---------------------------------------------------------|
|---------------------------------------------------------|---------------------------------------------------------|
|---------------------------------------------------------|---------------------------------------------------------|
|--7--(7)-(7)-(7)-----7-(7)-(7)-(7)-(7)-(7)-7-(7)-(7)-(7)-|--7--(7)-(7)-(7)-----7-(7)-(7)-(7)-(7)-(7)-7-(7)-(7)-(7)-|
|---------------------------------------------------------|---------------------------------------------------------|
|--0---0---0---0--0-0-0--0---0---0---0---0--0--0---0---0--|--0---0---0---0--0-0-0--0---0---0---0---0--0--0---0---0--|


|---------------------------------------|--------------------------------||
|---------------------------------------|--------------------------------||
|---------------------------------------|--------------------------------||
|---------------------------------------|--------------------------------||
|---------------------------------------|--------------------------------||
|-(0)-----------------------------------|-(0)----------------------------||
|
|---------------------------------------|--------------------------------||
|---------------------------------------|--------------------------------||
|---------------------------------------|--------------------------------||
|---------------------------------------|--------------------------------||
|-(2)-----------------------------------|-(2)----------------------------||
|-(0)-----------------------------------|-(0)----------------------------||
|
|---------------------------------------|--------------------------------||
|---------------------------------------|--------------------------------||
|-----------12-12-12-12-5-5-5-5-3-3-3-3-|--------------------------------||
|--7--7-7-7-----------------------------|-------------------7-7--7-7-----||
|---------------------------------------|--2--2-2-2-2-2-2-2--------------||
|--0--0-0-0--0--0--0--0-0-0-0-0-0-0-0-0-|--0--0-0-0-0-0-0-0--------------||


 Outro
                        Slower Q=80
  F#5        F#5        F#5  B5     A5   G#5
  Gtrs III, IV
|----------|----------|-----------|-----------|
|----------|----------|-----------|-----------|
|----------|----------|-----------|-----------|
|----------|----------|-----------|-----------|
|-4--------|-4--------|-4----9----|-7----6----|
|-2--------|-2--------|-2----7----|-5----4----|
|
| Gtr II
|----------|----------|-----------|-----------|
|----------|----------|-----------|-----------|
|----------|----------|-----------|-----------|
|----------|----------|-----------|-----------|
|----------|----------|-----------|-----------|
|-0--------|-0--------|-0----0----|-0----0----|


  Faster Q=120           H=H
  G5
|----------------------|-------------------|
|----------------------|-------------------|
|----------------------|-------------------|
|----------------------|-------------------|
|-5--------------------|-(5)---------------|
|-3--------------------|-(3)---------------|
|
| Gtr I
|---------12-12-12-12--|-------------------|
|----------------------|-------------------|
|----12-9--------------|-12--7-12-----12---|
|----------7--7--7--7--|-------------------|
|----------------------|-------------------|
|----------------------|-------------------|
|
| Gtr II
|----------------------|-------------------|
|----------------------|-------------------|
|----------------------|-------------------|
|----------------------|-------------------|
|----------------------|-------------------|
|-0--------------------|----------0-0------|


|--------------------|--------------------|
|--------------------|--------------------|
|--------------------|--------------------|
|--------------------|--------------------|
|-(5)----------------|-(5)----------------|
|-(3)----------------|-(3)----------------|
|
|--------------------|--------------------|
|--------------------|--------------------|
|-12--12-7-7---------|-12--12-7-7---------|
|--------------------|--------------------|
|--------------------|--------------------|
|--------------------|--------------------|
|
|--------------------|--------------------|
|--------------------|--------------------|
|--------------------|--------------------|
|--------------------|--------------------|
|--------------------|--------------------|
|------------0-0-0-0-|------------0-0-0-0-|


  G5
|--------------------------------------|--------------------------------------|
|--------------------------------------|--------------------------------------|
|--------------------------------------|--------------------------------------|
|--------------------------------------|--------------------------------------|
|-(5)----------------------------------|-(5)----------------------------------|
|-(3)----------------------------------|-(3)----------------------------------|
|
|--------------------------------------|--------------------------------------|
|--------------------------------------|--------------------------------------|
|-12--12-7-7---------12-12-7-7---------|-12--12-7-7---------12-12-7-7---------|
|--------------------------------------|--------------------------------------|
|--------------------------------------|--------------------------------------|
|--------------------------------------|--------------------------------------|
|
|--------------------------------------|--------------------------------------|
|--------------------------------------|--------------------------------------|
|--------------------------------------|--------------------------------------|
|--------------------------------------|--------------------------------------|
|--------------------------------------|--------------------------------------|
|------------0-0-0-0-----------0-0-0-0-|------------0-0-0-0-----------0-0-0-0-|


|--------------------------------------|----------------------------------------|
|--------------------------------------|----------------------------------------|
|--------------------------------------|----------------------------------------|
|--------------------------------------|----------------------------------------|
|-(5)----------------------------------|-(5)------------------------------------|
|-(3)----------------------------------|-(3)------------------------------------|
|
|--------------------------------------|--------------------12------------------|
|--------------------------------------|----------------------------------------|
|-12--12-7-7---------12-12-7-7---------|-12--12-7-7------------------7----------|
|--------------------------------------|---------------------7------------------|
|--------------------------------------|----------------------------------------|
|--------------------------------------|----------------------------------------|
|
|--------------------------------------|----------------------------------------|
|--------------------------------------|----------------------------------------|
|--------------------------------------|----------------------------------------|
|--------------------------------------|----------------------------------------|
|--------------------------------------|----------------------------------------|
|------------0-0-0-0-----------0-0-0-0-|------------0-0-0-0--0-0-0-0-0-0-0-0----|


                                              Faster Q=220         H.=H
  G5
|-------------------------------------------|--------------------------------------|
|-------------------------------------------|--------------------------------------|
|-------------------------------------------|--------------------------------------|
|-------------------------------------------|--------------------------------------|
|-(5)---------------------------------------|-(5)----------------------------------|
|-(3)---------------------------------------|-(3)----------------------------------|
|
|-------------------12-12-12-12-12-12-------|--------------------------------------|
|-------------------------------------------|--------------------------------------|
|--7--------7---7---------------------12-12-|-12--12-12-12-5-5-5-5-5-5-3-3-3-3-3-3-|
|--------------------7--7--7--7--7--7-------|--------------------------------------|
|-------------------------------------------|--------------------------------------|
|-------------------------------------------|--------------------------------------|
|
|-------------------------------------------|--------------------------------------|
|-------------------------------------------|--------------------------------------|
|-------------------------------------------|--------------------------------------|
|-------------------------------------------|--------------------------------------|
|-------------------------------------------|--------------------------------------|
|--0--0-0-0-0-0-0-0--0--0--0--0--0--0--0--0-|--0---0--0--0-0-0-0-0-0-0-0-0-0-0-0-0-|


                               Slower Q=105
                               F#5
|----------------------------------|---------*|
|----------------------------------|---------*|
|----------------------------------|---------*|
|----------------------------------|---------*|
|-(5)---------------------------4--|--(4)----*|
|-(3)---------------------------2--|--(2)----*|
|
|-12------12-(12)-------12-12--24--|-(24)----*|
|----------------------------------|---------*|
|----------------------------------|---------*|
|--7-------7--(7)--------7--7------|---------*|
|----------------------------------|---------*|
|----------------------------------|---------*|
|
|----------------------------------|---------*|
|----------------------------------|---------*|
|----------------------------------|---------*|
|----------------------------------|---------*|
|----------------------------------|---------*|
|--0--0-0--0---0--0-0-0---------0--|---------*|



Comments