Judas Priest - Never Satisfied Chords & Tabs

 

Never Satisfied Chords & Tabs

Judas Priest Chords & Tabs

Version: 1 Type: Tab 0 ratings
1 star 2 stars 3 stars 4 stars 5 stars
comments

Never Satisfied Tab

   
Band:  Judas Priest
Album: Rocka Rolla
Song:  Never Satisfied

Copyright (c)  (Gull) (1974)
Version 1.0 - (31/08/05)

Transcribed By: Steve
Email:          stephen.elvidge1@ntlworld.com



.  - palm mute           /  - slide up to
\  - slide down to       ~  - vibrato
h  - hammer on           b  - Bend
p  - pull off            Suffixes for bend
t  - tap                 f  - full bend    h - half bend
ph - pinched harmonic    q  - quarter bend t - tap bend
*  - see comment         ^  - Hold bend    r release bend
x  - Stuccatto           ~  - vibrato bend
,  - slight palm mute    () - ghost note, sustained note
"  - tremolo note        <> - Trill

Tunning E A D G B E
 

 Intro

  Guitar 1
     [--PM-]          ~~
E[-------------------------------------------------|
B[-------------------------------------------------|
G[-2-----------------------2-----------------------|
D[-2-----------------------2-----------------------|
A[-0--0-0-0-0-0-3-3-0---0--0--0-0-0-0-0-3-3-0---0--|
E[--------------------3-----------------------3----|
 [Guitar 2
E[-------------------------------------------------|
B[-------------------------------------------------|
G[-------------------------------------------------|
D[-7------------------/14--7-----------------14\---|
A[-0-----------------------0-----------------------|
E[-------------------------------------------------|

  Guitar 1
     [--PM-]          ~~
E[-------------------------------------------------|
B[-------------------------------------------------|
G[-2-----------------------2-----------------------|
D[-2-----------------------2-----------------------|
A[-0--0-0-0-0-0-3-3-0---0--0--0-0-0-0-0-3-3-0---0--|
E[--------------------3-----------------------3----|
 [Guitar 2
E[-------------------------------------------------|
B[-------------------------------------------------|
G[-------------------------2-------(2)-------------|
D[-7------------------/14--2-------(2)-------------|
A[-0-----------------------0-------(0)-------------|
E[-------------------------------------------------|

 Main Riff

 Riff A

  Guitar 1
     h[PM]
E[---------------------------|
B[---------------------------|
G[---------9---9-------5-(5)-|
D[-5-7-----7---7-------5-(5)-|
A[-0-0-0-0---0---x-x-x-------|
E[---------------------------|
 [ Guitar 2
 [   h[PM]               ~~
E[---------------------------|
B[---------------------------|
G[-------------5-5-----------|
D[-5-7-----7-------7---5-7---|
A[-0-0-0-0---x---------------|
E[---------------------------| Rpt 8 X

 Riff B

  Guitar 1
      [PM]
E[---------------------------|
B[---------------------------|
G[---------------------3-(3)-|
D[-3-5-----5-----------3-(3)-|
A[-3-5-----5-----------------|
E[-3---3-3-3--x--x--x--------|
 [Guitar 2
 [    [PM]               ~~
E[---------------------------|
B[---------------------------|
G[-------------3-3-----------|
D[-3-5-----5-x-----5---3-5---|
A[-3-5-----------------------|
E[-3---3-3-------------------| Rpt

 Rpt Riff A 4 X
 Rpt Riff B 2 X
 Rpt Riff A 2 X

 Bridge

  Guitar 1
             ~~~           ~~          ~~~  ~~~  ~~
E[---------------------------------------------------|
B[---------------------------------------------------|
G[---------------------------------------------------|
D[---------6------------6------------6---------------|
A[-----6-8---8------6-8---8------6-8---8--6-8--6-8---|
E[-6-8----------6-8----------6-8---------------------|
 [Guitar 2
 [           ~~~           ~~          ~~~  ~~~  ~~
E[---------------------------------------------------|
B[---------------------------------------------------|
G[---------------------------------------------------|
D[---------6------------6------------6-------------/-|
A[-----6-8---8------6-8---8------6-8---8--6-8--6-8---|
E[-6-8----------6-8----------6-8---------------------|

  Guitar 1
             ~~~           ~~          ~~~  ~~~  ~~
E[---------------------------------------------------|
B[---------------------------------------------------|
G[---------------------------------------------------|
D[---------6------------6------------6---------------|
A[-----6-8---8------6-8---8------6-8---8--6-8--6-8---|
E[-6-8----------6-8----------6-8---------------------|
 [Guitar 2
 [           ~~~           ~~          ~~~  ~~~  ~~
E[---------------------------------------------------|
B[---------9-10---------9-10---------9-10-9-10-9-10-\|
G[-----8-10---------8-10---------8-10----------------|
D[-8-10---------8-10---------8-10--------------------|
A[---------------------------------------------------|
E[---------------------------------------------------|

 Rpt Main Riff 4 X
 Rpt Verse

 Chorus

[ Tab from: http://www.guitartabs.cc/tabs/j/judas_priest/never_satisfied_tab.html ]
E-------------------------------------------------------------------|
B-------------------------------------------------------------------|
G-2----------(2)----------------------------------------------------|
D-2----------(2)-------------5----------(5)-----------------2-------|
A-0----------(0)-------------5----------(5)-----------------2-------|
E----------------------------3----------(3)-----------------0-------|

 Interlude an backing for guitar solo.
 
                [PM]  [PM]  ~~
E-------------------------------|
B-------------------------------|
G-------------------------------|
D-------------------------------|
A-------0-2(2)2-----2-----2-----|
E-0-3-4-----3p0-0-0-0-0-0-0-3b--| Rpt 15 X

E-------|
B-------|
G-------|
D-------|
A-------|
E-0-3-4-|

 Rpt Intro
 Rpt Main Riff
 Rpt Verse

 Rpt Main Riff 4 X

 Outro

  Guitar 1
     h[PM]
E[---------------------------|
B[---------------------------|
G[-------------5-5-----------|
D[-5-7-----7-------7---5-7---|
A[-0-0-0-0---x---------------|
E[---------------------------|
 [Guitar 2
E[---------------------------|
B[---------------------------|
G[---------------------------|
D[-2----------(2)------------|
A[-0----------(0)------------|
E[---------------------------|
 [Guitar 3               ~~~
E[------------20-20-17-1517--|
B[---------------------------|
G[---------------------------|
D[---------------------------|
A[---------------------------|
E[---------------------------|


  Guitar 1
     h[PM]
E[---------------------------|
B[---------------------------|
G[-------------5-5-----------|
D[-5-7-----7-------7---5-7---|
A[-0-0-0-0---x---------------|
E[---------------------------|
 [Guitar 2
E[---------------------------|
B[---------------------------|
G[---------------------------|
D[---------------------------|
A[-5----------(5)------------|
E[-3----------(3)------------|
 [Guitar 3               ~~~
E[------------20-20-17-1517--|
B[---------------------------|
G[---------------------------|
D[---------------------------|
A[---------------------------|
E[---------------------------|

  Guitar 1
     h[PM]
E[---------------------------|
B[---------------------------|
G[-------------5-5-----------|
D[-5-7-----7-------7---5-7---|
A[-0-0-0-0---x---------------|
E[---------------------------|
 [Guitar 2
E[---------------------------|
B[---------------------------|
G[---------------------------|
D[---------------------------|
A[-2----------(2)------------|
E[-0----------(0)------------|
 [Guitar 3               ~~~
E[------------20-20-17-1517--|
B[---------------------------|
G[---------------------------|
D[---------------------------|
A[---------------------------|
E[---------------------------|

  Guitar 1
     h[PM]
E[---------------------------|
B[---------------------------|
G[-------------5-5-----------|
D[-5-7-----7-------7---5-7---|
A[-0-0-0-0---x---------------|
E[---------------------------|
 [Guitar 2
E[---------------------------|
B[---------------------------|
G[---------------------------|
D[-7----------(7)------------|
A[-5----------(5)------------|
E[---------------------------|
 [Guitar 3               ~~~
E[------------20-20-17-1517--|
B[---------------------------|
G[---------------------------|
D[---------------------------|
A[---------------------------|
E[---------------------------|

  Guitar 1
     [--PM-]          ~~
E[-------------------------------------------------|
B[-------------------------------------------------|
G[-2-----------------------2-----------------------|
D[-2-----------------------2-----------------------|
A[-0--0-0-0-0-0-3-3-0---0--0--0-0-0-0-0-3-3-0---0--|
E[--------------------3-----------------------3----|
 [Guitar 2
E[-------------------------------------------------|
B[-------------------------------------------------|
G[-------------------------------------------------|
D[-2---------(2)-----------------------------------|
A[-0---------(0)-----------5---------(5)-----------|
E[-------------------------3---------(3)-----------|

  Guitar 1
     [--PM-]          ~~
E[-------------------------------------------------|
B[-------------------------------------------------|
G[-2-----------------------2-----------------------|
D[-2-----------------------2-----------------------|
A[-0--0-0-0-0-0-3-3-0---0--0--0-0-0-0-0-3-3-0---0--|
E[--------------------3-----------------------3----|
 [Guitar 2
E[-------------------------------------------------|
B[-------------------------------------------------|
G[-------------------------------------------------|
D[-------------------------7---------(7)-----------|
A[-2---------(2)-----------5---------(5)-----------|
E[-0---------(0)-----------------------------------|


 Ending

E-------------------------------------------------------------------|
B-------------------------------------------------------------------|
G-2---------------------------(2)-----------------------------------|
D-2---------------------------(2)-----------------------------------|
A-0---------------------------(0)-----------------------------------|
E-------------------------------------------------------------------|



END
Comments