Judas Priest - Metal Gods Chords & Tabs

 

Metal Gods Chords & Tabs

Judas Priest Chords & Tabs

Version: 1 Type: Tab 0 ratings
1 star 2 stars 3 stars 4 stars 5 stars
comments

Metal Gods Tab

   
 Judas Priest
Metal Gods

Gtr I (E A D G B E) - 'Glenn Tipton'
Gtr II (E A D G B E) - 'K.K. Downing'
Gtr III (E A D G B E) - 'Lead Guitar'
Gtr IV (E A D G B E) - 'Overdubs'

 Intro
  Q=98
  E5          D5        E5                            D5        E5
 4/4
  Gtrs I, II
|---------------------|-----------------|---------------------|--------------||
|---------------------|-----------------|---------------------|--------------||
|-9-9-9-9-9-9-7-7-7-7-|-9-9-9-9-(9)\----|-9-9-9-9-9-9-7-7-7-7-|-9-9-9-9-9----||
|-9-9-9-9-9-9-7-7-7-7-|-9-9-9-9-(9)\----|-9-9-9-9-9-9-7-7-7-7-|-9-9-9-9-9----||
|-7-7-7-7-7-7-5-5-5-5-|-7-7-7-7-(7)\----|-7-7-7-7-7-7-5-5-5-5-|-7-7-7-7-7----||
|---------------------|-----------------|---------------------|--------------||


   Verse
    $
    E5          D5        E5                            D5        E5
   4/4
||----------------------|-----------------|---------------------|--------------|
||o---------------------|-----------------|---------------------|--------------|
||--9-9-9-9-9-9-7-7-7-7-|-9-9-9-9-(9)\----|-9-9-9-9-9-9-7-7-7-7-|-9-9-9-9-9----|
||--9-9-9-9-9-9-7-7-7-7-|-9-9-9-9-(9)\----|-9-9-9-9-9-9-7-7-7-7-|-9-9-9-9-9----|
||o-7-7-7-7-7-7-5-5-5-5-|-7-7-7-7-(7)\----|-7-7-7-7-7-7-5-5-5-5-|-7-7-7-7-7----|
||----------------------|-----------------|---------------------|--------------|


              D5        E5
 4/4
|---------------------|-----------------|
|---------------------|-----------------|
|-9-9-9-9-9-9-7-7-7-7-|-9-9-9-9-(9)\----|
|-9-9-9-9-9-9-7-7-7-7-|-9-9-9-9-(9)\----|
|-7-7-7-7-7-7-5-5-5-5-|-7-7-7-7-(7)\----|
|---------------------|-----------------|


              D5        E5           E5opF#5
|---------------------|--------------------||
|---------------------|--------------------||
|-9-9-9-9-9-9-7-7-7-7-|-9-9-9-9-9----------||
|-9-9-9-9-9-9-7-7-7-7-|-9-9-9-9-9----2-2-4-||
|-7-7-7-7-7-7-5-5-5-5-|-7-7-7-7-7----2-2-4-||
|---------------------|--------------0-0-2-||


 Pre Chorus
               F#5                       B5           F#5
 4/4
       PM--|     PM------|       PM----|                PM--|     PM------|
|--------------------------|----------------------|-------------------------|
|--------------------------|----------------------|-------------------------|
|--------------------------|-------------4----(4)-|-------------------------|
|-(4)----------4-----------|---4---------4----(4)-|---4---------4-----------|
|-(4)----------4-----------|---4---------2----(2)-|---4---------4-----------|
|-(2)--2-2-2-0h2-2-2-2-2-2-|-0h2-2-2-2-2----------|-0h2-2-2-2-0h2-2-2-2-2-2-|


              E5open     F#5                                        B5
 4/4
      PM----|        PM|          PM--|     PM------|       PM----|
|--------------------------|--------------------------|----------------------|
|--------------------------|--------------------------|----------------------|
|--------------------------|--------------------------|-------------4----(4)-|
|---4---------2-(2)------4-|-(4)----------4-----------|---4---------4----(4)-|
|---4---------2-(2)------4-|-(4)----------4-----------|---4---------2----(2)-|
|-0h2-2-2-2-2-0-(0)--0-0-2-|-(2)--2-2-2-0h2-2-2-2-2-2-|-0h2-2-2-2-2----------|


                 To Coda
    F#5                                 E5open
 4/4
      PM--|     PM------|       PM----|
|-------------------------|--------------------||
|-------------------------|-------------------o||
|-------------------------|--------------------||
|---4---------4-----------|---4---------2------||
|---4---------4-----------|---4---------2-----o||
|-0h2-2-2-2-0h2-2-2-2-2-2-|-0h2-2-2-2-2-0------||


   Chorus
    G5       D5               G5               D5
   4/4
||-------------|------------|---------------------|----------||
||o------------|------------|---------------------|---------o||
||-----------7-|-(7)--------|-------------------7-|--(7)-----||
||--5------5-7-|-(7)--------|--5-----(5)--------7-|--(7)-----||
||o-5------5-5-|-(5)--------|--5-----(5)--------5-|--(5)----o||
||--3------3---|------------|--3-----(3)--3--5----|----------||
|
|   Gtr IV
||-------------|------------|---------------------|----------||
||o------------|------------|---------------------|---------o||
||-------------|------------|-12----(12)-------14-|-(14)-----||
||-------------|------------|-12----(12)-------12-|-(12)-----||
||o------------|------------|-10----(10)-10-12----|---------o||
||-------------|------------|---------------------|----------||


 Guitar Solo
  F#5                         E5open
 4/4
  Gtr III
|-----------------------------------|
|-----------------------------------|
|-4b6============(4)---\4-------2---|
|-----------------------------------|
|-----------------------------------|
|-----------------------------------|
|
| Gtrs I, II
|      PM-------------------------|
|-----------------------------------|
|-----------------------------------|
|-----------------------------------|
|-4----4-4-4-4-4--4--4----4-4-2---2-|
|-4----4-4-4-4-4--4--4----4-4-2---2-|
|-2----2-2-2-2-2--2--2----2-2-0---0-|


  F#5                 E5openF#5                       E5open
              ~
|-------------------------|---------------------------------|
|-------------------------|---------------------------------|
|-1-------2---------------|-----------------2h4p2---2h4-/6--|
|-------------4-----------|---------2h4-----------4---------|
|-------------------------|-2h4-----------------------------|
|-------------------------|---------------------------------|
|
|   PM------------------|       PM----------------------|
|-------------------------|---------------------------------|
|-------------------------|---------------------------------|
|-------------------------|---------------------------------|
|-4-4-4-4-4-4-4-4-4-4-2-2-|-4---4-4-4---4-4-4---4-4-4-2--2--|
|-4-4-4-4-4-4-4-4-4-4-2-2-|-4---4-4-4---4-4-4---4-4-4-2--2--|
|-2-2-2-2-2-2-2-2-2-2-0-0-|-2---2-2-2---2-2-2---2-2-2-0--0--|


  F#5                       E5openF#5                                         E5open
 4/4
|-------------------------------|-----14-----------------------------------------17b19==|
|-------2-2-5-----2-------------|-/14----17-17b19==(17)-----(17)r-14-17-14-14-14--------|
|-2h4-4-------2h4---4-2h4p2-----|-------------------------------------------------------|
|-------------------------------|-------------------------------------------------------|
|-------------------------------|-------------------------------------------------------|
|-------------------------------|-------------------------------------------------------|
|
|     PM----------------------|           PM-------------------------------------|
|-------------------------------|-------------------------------------------------------|
|-------------------------------|-------------------------------------------------------|
|-------------------------------|-------------------------------------------------------|
|-4---4-4-4---4-4-4---4-4-4-2-2-|---4-----4--4-------4--4-4---4-------4--4--4--2--2-----|
|-4---4-4-4---4-4-4---4-4-4-2-2-|---4-----4--4-------4--4-4---4-------4--4--4--2--2-----|
|-2---2-2-2---2-2-2---2-2-2-0-0-|---2-----2--2-------2--2-2---2-------2--2--2--0--0-----|


  F#5                                             E5open
|-(17)-----(17)r-14-17p14------14---------------------------|
|---------------------------17----17b19======(17)-----12b14-|
|-----------------------------------------------------------|
|-----------------------------------------------------------|
|-----------------------------------------------------------|
|-----------------------------------------------------------|
|
|      PM-------------------------------------------|
|-----------------------------------------------------------|
|-----------------------------------------------------------|
|-----------------------------------------------------------|
|---4--4-4---4-------4----4-----4--------4-4---4--2-2-------|
|---4--4-4---4-------4----4-----4--------4-4---4--2-2-------|
|---2--2-2---2-------2----2-----2--------2-2---2--0-0-------|

[ Tab from: http://www.guitartabs.cc/tabs/j/judas_priest/metal_gods_tab.html ]
  F#5                    E5open   F#5                         E5open
 4/4
                                   ~~~~~
|-12----------------------------|---------------------------------||
|----------10---9-----10p9----9-|-12b14-----------(12)\-----------||
|--------------------------11---|---------------------------------||
|-------------------------------|---------------------------------||
|-------------------------------|---------------------------------||
|-------------------------------|---------------------------------||
|
|    PM--------------------|            PM----------------------|
|-------------------------------|---------------------------------||
|-------------------------------|---------------------------------||
|-------------------------------|---------------------------------||
|--4-4-4-4--4-4-4-4-4--4-2--2---|--4----4-4-4-4-4---4---4-4-4-2-2-||
|--4-4-4-4--4-4-4-4-4--4-2--2---|--4----4-4-4-4-4---4---4-4-4-2-2-||
|--2-2-2-2--2-2-2-2-2--2-0--0---|--2----2-2-2-2-2---2---2-2-2-0-0-||


   Chorus
                                             D.S. al Coda
    G5       D5               G5               D5
   4/4
    Gtrs I, II
||-------------|------------|---------------------|-----------||
||o------------|------------|---------------------|----------o||
||-----------7-|-(7)--------|-------------------7-|--(7)------||
||--5------5-7-|-(7)--------|--5-----(5)--------7-|--(7)------||
||o-5------5-5-|-(5)--------|--5-----(5)--------5-|--(5)-----o||
||--3------3---|------------|--3-----(3)--3--5----|-----------||
|
|   Gtr IV
||-------------|------------|---------------------|-----------||
||o------------|------------|---------------------|----------o||
||-------------|------------|-12----(12)-------14-|-(14)------||
||-------------|------------|-12----(12)-------12-|-(12)------||
||o------------|------------|-10----(10)-10-12----|----------o||
||-------------|------------|---------------------|-----------||


 Outro
    &
    F#5       E5open     F#5                                          B5
 4/4
      PM----|        PM|            PM--|     PM------|       PM----|
|--------------------------||---------------------------|----------------------|
|--------------------------||o--------------------------|----------------------|
|--------------------------||---------------------------|-------------4----(4)-|
|---4---------2-(2)------4-||--(4)----------4-----------|---4---------4----(4)-|
|---4---------2-(2)------4-||o-(4)----------4-----------|---4---------2----(2)-|
|-0h2-2-2-2-2-0-(0)--0-0-2-||--(2)--2-2-2-0h2-2-2-2-2-2-|-0h2-2-2-2-2----------|


    F#5                                 E5open     F#5
 4/4
      PM--|     PM------|       PM----|        PM|
|-------------------------|---------------------------||
|-------------------------|--------------------------o||
|-------------------------|---------------------------||
|---4---------4-----------|---4---------2-(2)------4--||
|---4---------4-----------|---4---------2-(2)------4-o||
|-0h2-2-2-2-0h2-2-2-2-2-2-|-0h2-2-2-2-2-0-(0)--0-0-2--||


 4/4
       PM--|     PM--------|
|----------------------------|
|----------------------------|
|----------------------------|
|-(4)----------4-------------|
|-(4)----------4-------------|
|-(2)--2-2-2-0h2-2-2-2-2-2-2-|


                B5           F#5
      PM------|                PM--|     PM--------|
|------------------------|-----------------------------|
|------------------------|-----------------------------|
|---------------4----(4)-|-----------------------------|
|---4-----------4----(4)-|---4---------4---------------|
|---4-----------2----(2)-|---4---------4---------------|
|-0h2-2-2-2-2-2----------|-0h2-2-2-2-0h2-2-2-2-2-2-2---|


                E5open     F#5
 4/4
      PM------|        PM|
|----------------------------|
|----------------------------|
|----------------------------|
|---4-----------2-(2)------4-|
|---4-----------2-(2)------4-|
|-0h2-2-2-2-2-2-0-(0)--0-0-2-|


                                             B5
       PM--|     PM--------|       PM------|
|----------------------------|--------------------------|
|----------------------------|--------------------------|
|----------------------------|---------------4----(4)---|
|-(4)----------4-------------|---4-----------4----(4)---|
|-(4)----------4-------------|---4-----------2----(2)---|
|-(2)--2-2-2-0h2-2-2-2-2-2-2-|-0h2-2-2-2-2-2------------|


    F#5                                     E5open     F#5
 4/4
  Gtrs I, II
      PM--|     PM--------|       PM------|        PM|
|---------------------------|-----------------------------|
|---------------------------|-----------------------------|
|---------------------------|-----------------------------|
|---4---------4-------------|---4-----------2-(2)-------4-|
|---4---------4-------------|---4-----------2-(2)-------4-|
|-0h2-2-2-2-0h2-2-2-2-2-2-2-|-0h2-2-2-2-2-2-0-(0)--0-0--2-|
|
| Gtr IV
|---------------------------|-----------------------------|
|---------------------------|-----------------------------|
|---------------------------|----------------------9-9-11-|
|---------------------------|----------------------9-9-11-|
|---------------------------|----------------------7-7--9-|
|---------------------------|-----------------------------|


        PM--|     PM--------|
|------------------------------|
|------------------------------|
|------------------------------|
|--(4)----------4--------------|
|--(4)----------4--------------|
|--(2)--2-2-2-0h2-2-2-2-2-2-2--|
|
|------------------------------|
|------------------------------|
|-(11)-------------------------|
|-(11)-------------------------|
|--(9)-------------------------|
|------------------------------|


                B5                 F#5
 4/4
      PM------|                      PM--|     PM--------|
|---------------------------|------------------------------|
|---------------------------|------------------------------|
|---------------4-------(4)-|------------------------------|
|---4-----------4-------(4)-|------4---------4-------------|
|---4-----------2-------(2)-|------4---------4-------------|
|-0h2-2-2-2-2-2-------------|---0h=2-2-2-2-0h2-2-2-2-2-2-2-|
|
|---------------------------|------------------------------|
|---------------------------|------------------------------|
|-------------------9-9-11--|-(11)-------------------------|
|-------------------9-9-11--|-(11)-------------------------|
|-------------------7-7--9--|--(9)-------------------------|
|---------------------------|------------------------------|


                E5open     F#5
      PM------|        PM|
|------------------------------|
|------------------------------|
|------------------------------|
|---4-----------2-(2)-------4--|
|---4-----------2-(2)-------4--|
|-0h2-2-2-2-2-2-0-(0)--0-0--2--|
|
|------------------------------|
|------------------------------|
|----------------------9-9-11--|
|----------------------9-9-11--|
|----------------------7-7--9--|
|------------------------------|


                                              B5
 4/4
        PM--|     PM--------|       PM------|
|-----------------------------|---------------------------|
|-----------------------------|---------------------------|
|-----------------------------|---------------4-------(4)-|
|---4-----------4-------------|---4-----------4-------(4)-|
|---4-----------4-------------|---4-----------2-------(2)-|
|--(2)--2-2-2-0h2-2-2-2-2-2-2-|-0h2-2-2-2-2-2-------------|
|
|-----------------------------|---------------------------|
|-----------------------------|---------------------------|
|-(11)------------------------|-------------------9-9-11--|
|-(11)------------------------|-------------------9-9-11--|
|--(9)------------------------|-------------------7-7--9--|
|-----------------------------|---------------------------|


       F#5                                     E5open
 4/4
         PM--|     PM--------|       PM|
|------------------------------|---------------------*|
|------------------------------|---------------------*|
|------------------------------|---------------------*|
|------4---------4-------------|---4------4--4-2-----*|
|------4---------4-------------|---4------4--4-2-----*|
|---0h=2-2-2-2-0h2-2-2-2-2-2-2-|-0h2-2-2--2--2-0-----*|
|
|------------------------------|---------------------*|
|------------------------------|---------------------*|
|-(11)-------------------------|---------11-11-9-----*|
|-(11)-------------------------|---------11-11-9-----*|
|--(9)-------------------------|----------9--9-7-----*|
|------------------------------|---------------------*|



Comments