Judas Priest - Living After Midnight Chords & Tabs

 

Living After Midnight Chords & Tabs

Judas Priest Chords & Tabs

Version: 6 Type: Tab 0 ratings
1 star 2 stars 3 stars 4 stars 5 stars
comments

Living After Midnight Tab

I love this song but I was pissed off when I seen that none of the other tabs where
right. Sorry to say I didn't even come close on how to play the solo. Those guys are
too amazing on guitar.


intro/chorus

e------------------------------------------------------------|
b------------------------------------------------------------|
g---9-9--7----------------9-9--7-----------------------------|
d---9-9--7--7-7-7--9------9-9--7--7-7-7--9-------------------|
a---7-7--5--7-7-7--9------7-7--5--7-7-7--9-------------------|
e-----------5-5-5--7--0-----------5-5-5--7--0----------------|


e------------------------------------------------------------|
b------------------------------------------------------------|
g---9-9--7---------------------------------------------------|
d---9-9--7--7-7-7--9-----9---9-9-----------------------------|
a---7-7--5--7-7-7--9-----9---9-9-----------------------------|
e-----------5-5-5--7--0--7---7-7-----------------------------|


verse

e-------------------------------------------------------------|
b-------------------------------------------------------------|
g-------------------------------------------------------------|
d---2-2-2-2-2-2-2-2-2-2-2-2-5---2-2-2-2-2-2-5---2-2-2-2-2-2---|
a---2-2-2-2-2-2-2-2-2-2-2-2-5---2-2-2-2-2-2-5---2-2-2-2-2-2---|
e---0-0-0-0-0-0-0-0-0-0-0-0-3---0-0-0-0-0-0-3---0-0-0-0-0-0---|
p.m.-----------------------     -----------     --------------|


e-------------------------------------------------------------|
b-------------------------------------------------------------|
g---9---------------------------------------------------------|
d---9-2-2-2-2-2-2-2-2-2-2-2-5---2-2-2-2-2-2-5---2-2-2-2-2-2---|
a---7-2-2-2-2-2-2-2-2-2-2-2-5---2-2-2-2-2-2-5---2-2-2-2-2-2---|
e---0-0-0-0-0-0-0-0-0-0-0-0-3---0-0-0-0-0-0-3---0-0-0-0-0-0---|
p.m.  ---------------------     -----------     --------------|

[ Tab from: http://www.guitartabs.cc/tabs/j/judas_priest/living_after_midnight_tab_ver_6.html ]
e------------------------------------------------------------|
b------------------------------------------------------------|
g------------------------------------------------------------|
d-------5-----4-----9----------------------------------------|
a-------5-----4-----9----------------------------------------|
e---0---3-----2-----7----0-0---------------------------------|
p.m.-                    ---


bridge


e-------------------------------------------------------------|
b-------3-3-3-2-----3-3-3-2-----------------------------------|
g---2---2-2-2-2-----2-2-2-2-----------------------------------|
d---2---2-2-2-2-----2-2-2-2---2-2-2-2-2-2-5---2-2-2-2-2-2-----|
a---0-0-0-0-0-0---0-0-0-0-0---2-2-2-2-2-2-5---2-2-2-2-2-2-----|
e-----------------------------0-0-0-0-0-0-3---0-0-0-0-0-0-----|
p.m.  --          --          -----------     ----------------|


e-------------------------------------------------------------|
b-------3-3-3-2-----3-3-3-2-----------------------------------|
g---2---2-2-2-2-----2-2-2-2-----------------------------------|
d---2---2-2-2-2-----2-2-2-2---2-2-2-2-2-2-5---2-2-2-2-2-2-----|
a---0-0-0-0-0-0---0-0-0-0-0---2-2-2-2-2-2-5---2-2-2-2-2-2-----|
e-----------------------------0-0-0-0-0-0-3---0-0-0-0-0-0-----|
p.m.  --          --          -----------     ----------------|


e-------------------------------------------------------------|
b-------3-3-3-2-----3-3-3-2-----------------------------------|
g---2---2-2-2-2-----2-2-2-2-----------------------------------|
d---2---2-2-2-2-----2-2-2-2---2-2-2-2-2-2-5---2-2-2-2-2-2-----|
a---0-0-0-0-0-0---0-0-0-0-0---2-2-2-2-2-2-5---2-2-2-2-2-2-----|
e-----------------------------0-0-0-0-0-0-3---0-0-0-0-0-0-----|
p.m.  --          --          -----------     ----------------|


e------------------------------------------------------------|
b-------3-3-3-2-----3-3-3-2----------------------------------|
g---2---2-2-2-2-----2-2-2-2---------9---9--------------------|
d---2---2-2-2-2-----2-2-2-2---9-----9---9--------------------|
a---0-0-0-0-0-0---0-0-0-0-0---9-----7---7--------------------|
e-----------------------------7------------------------------|


Band: Judas Priest
Song: living after midnight
tabed by: Michael Peach
Comments