Judas Priest - Living After Midnight Chords & Tabs

 

Living After Midnight Chords & Tabs

Judas Priest Chords & Tabs

Version: 1 Type: Bass Tab 0 ratings
1 star 2 stars 3 stars 4 stars 5 stars
comments

Living After Midnight Bass Tab

   
/ = slide 

|*--*|(2) = repeat contents number
|*--*| of times shown in brackets 

6~ = Let note ring
___________________________

Intro - 2nd repeat lyrics enter

"living after...."
Riff 1
G:|------------------------|
D:|*-----------------------|
A:|*-7--7---5--------------|
E:|----------3/55--77------|

G:|------------------------|
D:|------------------------|
A:|-7--7---5---------------|
E:|----------3/5---77------|

G:|------------------------|
D:|-----------------------*|(2)
A:|-7--7---5--------------*|
E:|----------3/55--77-77---|

"I took the city...."
Riff 2
G:|------------------------|
D:|------------------------|x2
A:|------------------------|
E:|-00000000000030-000030--|

"I cut my life into...."
Riff 3
G:|------------------------|
D:|------------------------|
A:|-----------2~-/5--------|
E:|-3~---2~----------------|

"Living after...."
Riff 1
G:|------------------------|
D:|------------------------|
A:|--7--7---5--------------|
E:|----------3/55--77------|

G:|------------------------|
D:|------------------------|
A:|-7--7---5---------------|
E:|----------3/5---77------|

G:|------------------------|
D:|------------------------|
A:|-7--7---5---------------|
E:|----------3/55--77-77---|


Riff 2
G:|------------------------|
D:|------------------------|x2
A:|------------------------|
E:|-00000000000030-000030--|


Riff 3
G:|------------------------|
D:|------------------------|
A:|-----------2~-/5--------|
E:|-3~---2~----------------|
[ Tab from: http://www.guitartabs.cc/tabs/j/judas_priest/living_after_midnight_btab.html ]
"Living after...."
Riff 1
G:|------------------------|
D:|------------------------|
A:|--7--7---5--------------|
E:|----------3/55--77------|

G:|------------------------|
D:|------------------------|
A:|-7--7---5---------------|
E:|----------3/5---77------|

G:|------------------------|
D:|------------------------|
A:|-7--7---5---------------|
E:|----------3/55--77-77---|

Riff 4
G:|------------------------|
D:|------------------------|x3
A:|------------------------|
E:|55555555555500000030-000|

Riff 5
G:|------------------------|
D:|------------------------|
A:|-------------2~--5~--2~-|
E:|-555555555555-----------|

Guitar solo
Riff 1
G:|------------------------|
D:|------------------------|
A:|--7--7---5--------------|
E:|----------3/55--77------|

G:|------------------------|
D:|------------------------|
A:|-7--7---5---------------|
E:|----------3/5---77------|

G:|------------------------|
D:|------------------------|
A:|-7--7---5---------------|
E:|----------3/55--77-77---|

Riff 2
G:|------------------------|
D:|------------------------|x2
A:|------------------------|
E:|-00000000000030-000030--|

Riff 3
G:|------------------------|
D:|------------------------|
A:|-----------2~-/5--------|
E:|-3~---2~----------------|

"Living after...."
Riff 1
G:|------------------------|
D:|*-----------------------|
A:|*-7--7---5--------------|
E:|----------3/55--77------|

G:|------------------------|
D:|------------------------|
A:|-7--7---5---------------|
E:|----------3/5---77------|

G:|------------------------|
D:|-----------------------*|(2)
A:|-7--7---5--------------*|
E:|----------3/55--77-77---|
Comments