Judas Priest - Hell Patrol Chords & Tabs

 

Hell Patrol Chords & Tabs

Judas Priest Chords & Tabs

Version: 1 Type: Bass Tab 0 ratings
1 star 2 stars 3 stars 4 stars 5 stars
comments

Hell Patrol Bass Tab

Intro

||-------|-------|-------|-------|-------|-------|-------||-------|-------|
||-------|-------|-------|-------|-------|-------|-------||-------|-------|
||---2---|-0000--|-0000--|---2---|-0000--|-0000--|---5---||---2---|-0000--|
||-------|-------|-------|-------|-------|-------|-------||-------|-------|

 |_______________________________________________________|
       			     |
		            X 2


|-------|-------|-------|-------|
|-------|-------|-------|-------|
|-2222--|-3333--|-5555--|-3333--|
|-------|-------|-------|-------|



Verse
		     1		     2
		 __________________________________
		||		 ||
|-------|-------||-------|-------||-------|-------|
|-------|-------||-------|-------||-------|-------|
|---0---|-0002--||--000--|-3-5-2-||--0002-|--000--|
|-------|-------||-------|-------||-------|-------|

	|_______|
	    |
	   X 2



Pre-Chorus

|-------|-------|-------|-------|-------|
|-------|-------|-------|-------|-------|
|---0---|---2---|---3---|---5---|---7---|
|-------|-------|-------|-------|-------|


[ Tab from: http://www.guitartabs.cc/tabs/j/judas_priest/hell_patrol_btab.html ]
Chorus
			     1		      2
			 __________________________
			||		 ||
|-------|-------|-------||-------|-------||-------|
|-------|-------|-------||-------|-------||-------|
|---2---|-0000--|-0000--||-2-3-5-|---3---||-2-3---|
|-------|-------|-------||-------|-------||-------|


Fill 1

|-------|-------|-------||-------|
|-------|-------|-------||-------|
|-2222--|-3333--|-5555--||-5555--|
|-------|-------|-------||-------|

|_______|_______|_______||_______|
    |       |       |	     |
   X 4     X 4     X 4	    X 4



Solo Fill

|-------|-------|-------|-------|-------|-------|
|-------|-------|-------|-------|-------|-------|
|--/5---|-7-9-7-|-5-7-9-|--7-5--|-9-7-5-|--9-7--|
|-------|-------|-------|-------|-------|-------|
		|_______|
		    |
		   X 5



Solo 1

Play: Verse, Bridge, Solo Fill, 1st part of Intro and then

|-------|-------|-------|-------|
|-------|-------|-------|-------|
|-2/3/5-|-/7/8/-|-10/12-|--/14--|
|-------|-------|-------|-------|



Fill 2

|-------|-------|-------|
|-------|-------|-------|
|-2/3/5-|-/7/8--|--/2---|
|-------|-------|-------|



Solo 2

Play: 1st part of Fill 1 and Fill 2



Ending

|-------|
|-------|
|--3-2--|
|-------|




PLAY:

Intro
Verse x 3
Pre-Chorus
Chorus
Verse x 3
Pre-Chorus
Chorus
Fill 1
Solo 1
Fill 2
Verse x 2
Fill 2
Verse
Pre-Chorus
Chorus
Solo 2
Ending
Comments