Judas Priest - Hell Bent For Leather Chords & Tabs

 

Hell Bent For Leather Chords & Tabs

Judas Priest Chords & Tabs

Version: 1 Type: Tab 0 ratings
1 star 2 stars 3 stars 4 stars 5 stars
comments

Hell Bent For Leather Tab

intro
e-------------------------------------------------
b-------------------------------------------------
g-------------------------------------------------
d-------------------------------------------------
a-2---3---4---5---6---7---3-----2-----------------
e-0---1---2---3---4---5---1-----0-----------------

verse
e-------------------------------------------------
b-----------5-7p5---5-7p5-------------------------
g-----------5-7p5---5-7p5-------------------------
d---7---7---5-7p5---5-7p5-------------------------
a-00--00--00------0-------------------------------
e-------------------------------------------------
[ Tab from: http://www.guitartabs.cc/tabs/j/judas_priest/hell_bent_for_leather_tab.html ]
e-------------------------------------------------
b-----------5-7p5---------------------------------
g-----------5-7p5---------------------------------
d---7---7---5-7p5-5-4-----------------------------
a-00--00--00------3-2-----------------------------
e-------------------------------------------------

bridge
e-------------------------------------------------
b---------7--------5-7--------7-----5-------------
g---------7--------5-7--------7-----5-------------
d---7p5---7--7-5---5-7--7p5---7-7p5-5-------------
a-5-----7--------7----------5---------------------
e-------------------------------------------------

e-------------------------------------------------
b---------7--------5-7--------7-8-9-12------------
g---------7--------5-7--------7-8-9-12------------
d---7p5---7--7-5---5-7--7p5---7-8-9-12------------
a-5-----7--------7----------7---------------------
e-------------------------------------------------

chorus
e-------------------------------------------------
b-------------------------------------------------
g-------------------------------------------------
d---------2-5-------------------------------------
a---2-5-3-------0-3---2-5-------------------------
e-3-----------1-----3-----------------------------
Comments