Judas Priest - Eulogy Chords & Tabs

 

Eulogy Chords & Tabs

Judas Priest Chords & Tabs

Version: 1 Type: Tab 0 ratings
1 star 2 stars 3 stars 4 stars 5 stars
comments

Eulogy Tab

There isn't any other guitar parts a piano joins in later in the song
[ Tab from: http://www.guitartabs.cc/tabs/j/judas_priest/eulogy_tab.html ]
E-------------------------------------------------------------------------|
B-------------------------------------------------------------------------|
G----------------------------5---------5----------------------------------|
D----------------------7---------7-------------------7------9-----7-------|
A---------------0------------------------------0-----0------0-----0-------|
E---------------0------------------------------0--------------------------|

E----------------------------------------------------------------------------|
B----------------------------------------------------------------------------|
G--------------------------5--------5----------------------------------------|
D--------------------7---------7--------------------7-------7----------------|
A--------------0--------------------------0----0-------0---------------------|
E---------------0-------------------------0----------------------------------|
Comments