Judas Priest - Electric Eye Chords & Tabs

 

Electric Eye Chords & Tabs

Judas Priest Chords & Tabs

Version: 4 Type: Tab 0 ratings
1 star 2 stars 3 stars 4 stars 5 stars
comments

Electric Eye Tab

*************************************************************
			Judas Priest
		 The Hellion - Electric Eye
*************************************************************
(The Hellion)
Guitar 1:
------------------------7------------------------------------|
----8-7-------8-7---------10----8----------------------------|
--------9~--------9~-----------------------7----9------------|
--9---------9---------9-----------------10--------9~---------|
------------------------------------/10----------------------|
-------------------------------------------------------------|

Guitar 2: (Guitar 1 continues playing bar 1)
----7------------------7-------------------------------------|
------10------8~---------10------8~-------8--7----/12~-------|
--9------------------9-----------------9---------------------|
-------------------------------------------------------------|
-------------------------------------------------------------|
-------------------------------------------------------------|

-12~------10~------/12---------------------------------------|
-------------------------------------------------------------|
-------------------------------------------------------------|
-------------------------------------------------------------|
-------------------------------------------------------------|
-------------------------------------------------------------|

(Electric Eye)
-------------------------------------------------------------|
-------------------------------------------------------------|
----------------------------------------------------------9--|
----------------------------------------------------------9--|
--7---9---10-----7---9---10-0---7-0-9-0-10----9---10------7--|
----0---0----8-----0---0-------------------7----7----8-------|

-------------------------------------------------------------|
-------------------------------------------------------------|
-----9-----9-----7----7/9------9-----9---------------9-------|
-----9-----9-----7----7/9------9-----9--/9-7------5--9-------|
-----7-----7-----5----5/7------7-----7--/7-7------5--7-------|
-x-x---x-x---x-x-----------x-x---x-x-------------------------|

-------------------------------------------------------------|
-------------------------------------------------------------|
-9-----------------------------------------------------------|
-9--/9-7------5----------------------------/9-7-----5--------|
-7--/7-7------5----------------------------/7-7-----5--------|
-------------------------------------------------------------|

-------------------------------------------------------------|
-------------------------------------------------------------|
--------------------------------7----------------------------|
---------10----------7----------7--------4----5----7--9------|
--7-9-10-10---7-9-10-7---7-9-10-5---------------------9------|
----------8----------5--------------------------------7------|

--/7----|----------------------------------------------------|
--/7----|----------------------------------------------------|
--/4----|-------7----6----4-----------------7----6----4------|
--------|-------7----7----5----9----7-------7----7----5-(2X)-|
--------|-------7----7----5----7----5-------7----7----5------|
--------|---0----------------------------0------------0------|

   	(Lead Solo)
-------------|-10p7----7h10p7-8h11p8-9h12p9-10h13p10-11h14p11-|
-------------|-----h10----------------------------------------|
-9-----4-----|------------------------------------------------|
-9-----5-----|------------------------------------------------|
-7-----5-----|------------------------------------------------|
-------0-----|------------------------------------------------|

-12h15p12-13h16p13----15b~--------15b~-------15b~-------15b--|
-------------------------------------------------------------|
-------------------------------------------------------------|
-------------------------------------------------------------|
-------------------------------------------------------------|
-------------------------------------------------------------|

-15p12-------15p12----------------------------------17p15p14-|
------h15-12------h15-12h15p12-------------------------------|
-------------------------------14br-12-----------------------|
---------------------------------------14-12-----------------|
---------------------------------------------14--------------|
------------------------------------------------12~----------|
[ Tab from: http://www.guitartabs.cc/tabs/j/judas_priest/electric_eye_tab_ver_4.html ]
-15p14p12-14p12----12-------15p12----12-------------------------|
---------------h15----15p12------h15----15p12-15p12----12-------|
----------------------------------------------------14----15-14-|
----------------------------------------------------------------|
----------------------------------------------------------------|
----------------------------------------------------------------|

-------------------------------------------------------------|
-15p11---------------------------------------------------17b-|
------h12-15p12----------------------------------------------|
---------------h14-14p12-14p12----12-------------------------|
------------------------------h14----14p12-14----------------|
----------------------------------------------15-14-12-------|

--17----------17------17---------17------17--17~-------------|
-----17b---------17b--------17b-----17b----------------------|
-------------------------------------------------------------|
-------------------------------------------------------------|
----------------------------------------------------------/9-|
-------------------------------------------------------------|

--------------------------------------19p14h17p14-19p14h16p14-|
------------------------------10/12~--------------------------|
------------------7--/9--9h11---------------------------------|
-----7--9--/7--9----------------------------------------------|
-10-----------------------------------------------------------|
--------------------------------------------------------------|

-19p14h17p14-19p14h16p14--22p17h19p17-----19h22p19-----------|
---------------------------------------------------22p21p19--|
-------------------------------------------------------------|
-------------------------------------------------------------|
-------------------------------------------------------------|
-------------------------------------------------------------|

-19----------------------------------------------------------|
----22p19-18-19-22--22b~--22b~--------7-8/10-8-7---8~-----8--|
-----------------------------------/9------------------------|
-------------------------------------------------------------|
-------------------------------------------------------------|
-------------------------------------------------------------|

------------------------------------------------------------------|
-------------------7-8/10-8-7---10--------------------------------|
--9b--r9~-------/9------------------9-8---------------------------|
---------------------------------------------------------------7--|
------------------------------------------------7----7-10-7-10----|
-----------------------------------------7-7-10---10--------------|

			        (End Solo)
--------------------------10----12b-|------------------------|
------------------8-10-12-----------|------------------------|
----------7-9-7-9-------------------|---9--------------------|
------7-9---------------------------|---9--------------------|
-7-10-------------------------------|---7---7---9---10-------|
------------------------------------|---------0---0----8-----|

-------------------------------------------------------------|
-------------------------------------------------------------|
-------------------------------------------------------------|
-------------------------------------------------------------|
-7---9---10-0--7-0-9-0-10----9---10------9---10--------------|
---0---0------------------7----7----7------7----7------------|

-------------------------------------------------------------|
-------------------------------------------------------------|
-------------------------------------------------------------|
--7-----5-----7-----5-----7----------------------------------|
--7-----5-----7-----5-----7p5--------------------------------|
----0-0---0-0---0-0---0-0------------------------------------|

-------------------------------------------------------------|
-------------------------------------------------------------|
-------------------------------------------------------------|
---------------------------------------10--------------------|
---------------------------------------10--------------------|
----------------------------------------8--------------------|

-------------------------------------------------------------|
-------------------------------------------------------------|
-------7---6-----4-------------------------------------------|
-------7---7-----5-------9-----------------------------------|
-------7---7-----5-------7-----------------------------------|
---0------------------------0--------------------------------|
Comments