Judas Priest - Dissident Aggressor Chords & Tabs

 

Dissident Aggressor Chords & Tabs

Judas Priest Chords & Tabs

Version: 1 Type: Tab 0 ratings
1 star 2 stars 3 stars 4 stars 5 stars
comments

Dissident Aggressor Tab

   
Song = Dissident Aggressor

Artist = Judas Priest

Normal Tuning

PM = Palm Mute
~~~~ = Vibrato
SL = Slide Down
/SL = Slide Up
^ = Slight Bend Up
PO = Pull Off
HO = Hammer On


Intro
With reverbed pick scrapes etc.

   Guitar 1  Gradual fade in
E[-----------------------------------------------------------------
B[-----------------------------------------------------------------
G[-----------------------------------------------------------------
D[-----------------------------------------------------------------
A[-----------------------------------------------------------------
E[-0-0-0-0-0-0-0-0-0-0-0-0-0-0-0-0-0-0-0-0-0-0-0-0-0-0-0-0-0-0-0-0-
 [
 [ Guitar 2  Gradual fade in (probably backward guitar)
E[-----------------------------------------------------------------
B[-----------------------------------------------------------------
G[-----------------------------------------------------------------
D[-2----------------------(2)-----------------(2)------------------
A[-2----------------------(2)-----------------(2)------------------
E[-0----------------------(0)-----------------(0)------------------


Main riff

     HO [-PM-]^PO  [-PM-]  HO [-PM-]^PO[PM]
E---------------------------------------------
B---------------------------------------------
G---------------------------------------------
D------------------------------------------2--
A--0--2----------2-------0--2--------------0--
E--0--0-0-0-0-3--0-0-0-0-0--0-0-0-0-3--0-3---- RPT 2 X on own before drums enter.
                                               RPt 2 X before vocals enter
                                               RPT 3 X for verse.


Riff at end of verse

     HO [-PM-]^PO /SL                ~~~
E---------------------------------------
B---------------------------------------
G-----------------------------------4---
D-------------------5---4---4--0--------
A--0--2--------------------------2------
E--0--0-0-0-0-3--0----------------------

Chorus
Light palm mute through out.
[ Tab from: http://www.guitartabs.cc/tabs/j/judas_priest/dissident_aggressor_tab.html ]
    Ho        HO        HO
E------------------------------------------
B------------------------------------------
G------------------------------------------
D------------------------------------------
A--5-7-7-7-7-5-7-7-7-7-5-7-7-7-7-7---------
E--0-0-0-0-0-0-0-0-0-0-0-0-0-0-0-0-5--6--7- 
                                              
                                              RPT these 2 riffs 2 X
   HO        HO                              / 
E------------------------------------------ /
B------------------------------------------
G------------------------------------------
D-----------------------------------5------
A--5-7-7-7-7-5-7-7-7-7--------5---5--------
E--0-0-0-0-0-0-0-0-0-0-5-6--7---7---------- 

End of second chorus into guitar solo

    HO        HO
E------------------------------------------------------
B------------------------------------------------------
G--------------------------------------------------5---
D-----------------------------------5--------5---5-----
A--5-7-7-7-7-5-7-7-7-7--------5---5---5-6--7---7-------
E--0-0-0-0-0-0-0-0-0-0-5-6--7---7----------------------

 Backing for solo

   [---------PM----------------]       [-------PM---------]
E-----------------------------------------------------------------------------
B-----------------------------------------------------------------------------
G------------------------------------------------------------------------5----
D------------------------------------------------------------------5---5------
A--------------------------------5-6--7---------------------5-6--7---7--------
E--3-5-5-5-5-3-5-5-5-5-3-5-5-5-5--------3-5-5-5-5-3-5-5-5-5------------------- RPT 4 X

End guitar solo by playing a D power chord then straight into the breakdown.

Breakdown

   Guitar 1 [--PM--]      [-PM--]           [PM]      [PM]
    SL /SL         SL /SL         SL /SL  /SL   /SL SL
E[----------------------------------------------------------------
B[----------------------------------------------------------------
G[--9--7--9---------9--7--9---------9--7--9--4--5-----12--11------
D[--9--7--9---------9--7--9---------9--7--9--4--5-----12--11------
A[--7--5--7---------7--5--7---------7--5--7--2--3-----10--9-------
E[----------0-0-0-0---------0-0-0-0---------------0-0-------0-0---
 [
 [
 [ Guitar 2
 [  SL /SL         SL /SL         SL /SL  /SL   /SL SL
E[----------------------------------------------------------------
B[----------------------------------------------------------------
G[--9--7--9---(9)---9--7--9---(9)---9--7--9--4--5-----12--11------
D[--9--7--9---(9)---9--7--9---(9)---9--7--9--4--5-----12--11------
A[--7--5--7---(7)---7--5--7---(7)---7--5--7--2--3-----10--9-------
E[---------------------------------------------------------------- RPT 2 X


Rpt chorus to end.

Comments