Judas Priest - Deal With The Devil Chords & Tabs

 

Deal With The Devil Chords & Tabs

Judas Priest Chords & Tabs

Version: 1 Type: Tab 0 ratings
1 star 2 stars 3 stars 4 stars 5 stars
comments

Deal With The Devil Tab

Artist: Judas Priest
Song: "Deal With The Devil" ("Angel Of Retribution" 2005)
Tabbed By Nailed Reaper (reap@front.ru)

. - palm mute
\ - slide down
[ Tab from: http://www.guitartabs.cc/tabs/j/judas_priest/deal_with_the_devil_tab.html ]
main riff
e|------------------------------------------------------------------------------------------|
B|------------------------------------------------------------------------------------------|
G|---------------------------------------------------9--7-----------------------------------|
D|-7\9-------------7\9--12--9---7\9-------------7\9--7--5---7\9-------------7\9--12--9---7\9|
A|-5\7-------------5\7--10--7---5\7-------------5\7---------5\7-------------5\7--10--7---5\7|
E|-----0-0-0-0-0-0------------0-----0-0-0-0-0-0-----------0-----0-0-0-0-0-0------------0----|
       . . . . . .            .     . . . . . .           .     . . . . . .            .    

e|------------------------------|
B|------------------------------|
G|------------------------------|
D|------------------------------|
A|------------------------------|
E|-0-0-0-0-0-0-3--6-5-3-0-6-5-3-|
   . . . . . .                  

Nice song, pretty riff!
Comments