Judas Priest - Burn In Hell Chords & Tabs

 

Burn In Hell Chords & Tabs

Judas Priest Chords & Tabs

Version: 2 Type: Tab 0 ratings
1 star 2 stars 3 stars 4 stars 5 stars
comments

Burn In Hell Tab

   
Artist: Judas Priest
Song: "Burn In Hell" written by Glenn Tipton & KK Downing
From album "Jugulator" (1997)
Tabbed by Nailed Reaper (reap@front.ru)

Very nice song, one of the best with Ripper. Pretty bucket of heavy riffs and I'm very
like that I've tabbed it.
I'm sorry for any errors and if you find them - mail me please.

\ - slide down
/ - slide up
. - palm mute
~ - vibrato
* - some effect that makes note an octave higher
+note+ - natural harmonics
h - hammer on
p - pull off

Tune down half step

   Intro
eb|-------------------------------------------------------|
Bb|-------------------------------------------------------|
Gb|-------------------------------------------------------|
Db|--------9-8------8-7------9-8------8-7--7--------------|
Ab|-7----7--------7--------7--------7--------10-9\10-7----|
Eb|-------------------------------------------------------|

   Riff 1					 on the 17th time
eb|-----------------|------------------|	|--------------------|
Bb|-----------------|------------------|	|--------------------|
Gb|-----------------|------------------|	|--------------------|
Db|---9-8------7----|---9-8------7-----|	|---9-8------7-------|
Ab|-7-----9\10---8--|-7-----9\10---9-8-|	|-7-----9\10---8--7--|
Eb|-----------------|------------------|	|--------------------|

   Riff 2
eb|------------------------------|
Bb|------------------------------|
Gb|------------------------------|
Db|------------------------------|
Ab|-2--2-3-2-3-4-5-2-222-3-2-3-5-|
Eb|-0--0-1-0-1-2-3-0-000-1-0-1-3-|
         . . . . .   ... . . .

   Riff 3
eb|-----------------------------------------------------|
Bb|-----------------------------------------------------|
Gb|-----------------------------------------------------|
Db|-------3-------------3-----------3-------------3-----|
Ab|-2--2--1-2--2--2-2-2-1-2-5-2--2--1-2--2--2-2-2-1-2-5-|
Eb|-0--0----0--0--0-0-0---0-3-0--0----0--0--0-0-0---0-3-|
                                            . . .

   Lead 1
eb|-\15~~~~12~~~~-------------|
Bb|---------------------------|
Gb|---------------------------|
Db|-------------------------2-|
Ab|--------------10~~~~-7~~-2-|
Eb|-------------------------0-|

   Riff 4
eb|-----------------------------|
Bb|-----------------------------|
Gb|-----------------------------|
Db|---------3-------------3-----|
Ab|-2-------1-----2-------1-2-5-|
Eb|-0-0-0-0---0-0-0-0-0-0---0-3-|
      . . .   . .   . . . 
[ Tab from: http://www.guitartabs.cc/tabs/j/judas_priest/burn_in_hell_tab_ver_2.html ]
   Riff 5
eb|------------------------------------------------------------------------------------|
Bb|------------------------------------------------------------------------------------|
Gb|------------------------------------------------------------------------------------|
Db|-3-------------------------3-------------------------3------------------------------|
Ab|-1-------2-------2-----3-5-1-------2-------2-----3-3-1-------2-------2-----3-5--2-2-|
Eb|---0-0-0-0-0-0-0-0-0-0-1-3---0-0-0-0-0-0-0-0-0-0-1-1---0-0-0-0-0-0-0-0-0-0-1-3--0-0-|
      . . .   . . .   . .       . . .   . . .   . .       . . .   . . .   . .      . .

   Break
eb|--------------------------------------------------------------------|
Bb|--------------------------------------------------------------------|
Gb|------------------------------------------------+7+-----------------|
Db|-------------8---------------------------------8--+7+---------------|
Ab|-7--8-10-8-7---10-8-7-2-3-2-3-1-----2-8-10-8-7-------7--2-3-2-3-1---|
Eb|----------------------0-1-0-1---3-1-0-------------------0-1-0-1---3-|
                         . . . .                           . . . .

   Riff 6
eb|---------------------------------|
Bb|---------------------------------|
Gb|---------------------------------|
Db|---------------------------------|
Ab|-5/4-2-5/4-2-5/4-5/4-2-2-2-2-2-2-|
Eb|-3/2-0-3/2-0-3/2-3/2-0-0-0-0-0-0-|
        .     .         . . . . . . 

   Riff 7
eb|---------------------------------------------------------------------------------------|
Bb|---------------------------------------------------------------------------------------|
Gb|---------------------------------------------------------------------------------------|
Db|-------------------------------------3-2-----------------------------------3-2h3p2h3p2-|
Ab|---1b2-----1b2---0-----1b2-----1b2---------1b2-----1b2---0-----1b2-----1b2-------------|
Eb|-0-----0-0-----0---3-0-----0-0-----0-----0-----0-0-----0---3-0-----0-0-----------------|
    .     . .     .     .     . .     .     .     . .     .     .     . .

  Riff 5
eb|-----------------------------------------------------|
Bb|-----------------------------------------------------|
Gb|-----------------------------------------------------|
Db|-3-------------------------3-------------------------|
Ab|-1-------2-------2-----3-5-1-------2-------2-----3-3-|
Eb|---0-0-0-0-0-0-0-0-0-0-1-3---0-0-0-0-0-0-0-0-0-0-1-1-|
      . . .   . . .   . .       . . .   . . .   . .

   Outro
eb|-------------------------------------|
Bb|-------------------------------------|
Gb|-------------+7+---------------------|
Db|------------8--+7+-------------------|
Ab|-2-8-10-8-7--------7-2-3-2-3-1-----2-|
Eb|-0-------------------0-1-0-1---3-1-0-|
                        . . . .

	SONG STRUCTURE
Intro
Riff 1 (x17)
Riff 2 (x2)
Riff 3
Riff 3 + Lead 1
Riff 4 (x4)
Riff 3
Riff 4 (x4)
Riff 3
Riff 5
Riff 2 (x4)
Break
Riff 4 (x2) + Lead 1
Riff 4 (x2) + Solo
Riff 6 (x4)
Riff 5
Riff 2 (x4)
Riff 1 (x2)
Riff 7 (x4)
Riff 5 (x3)
Outro

Well, that's "Burn In Hell" and I can wish you just to BURN IN HELL!!!
Comments