Judas Priest - Breaking The Law Chords & Tabs

 

Breaking The Law Chords & Tabs

Judas Priest Chords & Tabs

Version: 6 Type: Tab 0 ratings
1 star 2 stars 3 stars 4 stars 5 stars
comments

Breaking The Law Tab

   
-------------------------------------------------------------------------------
			     Breaking the law - Ferrum Nox
-------------------------------------------------------------------------------
Tabbed by: Daniel
Email: Hippiekiller99@msn.com

Tuning:

Intro

GTR II
e|--------------------------------------|
B|--------------------------------------|
G|--------------------------------------|
D|--------------------------------------|
A|0-2-3-0-2-3-0-2-3-----0-----0---3-2---|
E|------------------1-3---1-3---3-------| x4

GTR I (Comes in the second time)
e|--------------------------------------------|
B|--------------------------------------------|
G|--------------------------------------------|  
D|7-9-10-7-9-10-7-9-10------7------7----10-9--|
A|---------------------8-10---8-10---10-------|
E|--------------------------------------------| 

Verse
e|------------------------------------|
B|------------------------------------|
G|2--------------------2--------------|
D|2--------------5-----2--------------|
A|0--------------3--5--0--------------|
E|------------------3-----------------| x2 Then: 

e|------------------------------------|
B|------------------------------------|
G|------------------------------------|
D|10-------5--------10-------2--------|
A|8--------3--------8--------2--------|
E|---------------------------0--------| x1 

[ Tab from: http://www.guitartabs.cc/tabs/j/judas_priest/breaking_the_law_tab_ver_6.html ]
Chorus 
e|------------------------------------------------------------------|
B|------------------------------10---------------------------10-10---|
G|------------------------------9----------------------------9--9----|
D|------------------------------------------------------------------|
A|0-0-0-0-0-0-0-0-0-0-0-0-0-0-0----0-0-0-0-0-0-0-0-0-0-0-0-0-------|
E|------------------------------------------------------------------| x2

Verse

Chorus

Then:
e|-------------------------------------------------------------------------------------|
B|-------------------------------------------------------------------------------------|
G|-------------------------------------------------------------------------------------|
D|5--5-3-3-3-5--5-3-3-3-5--5-3-3-3-5--5-3-3-3--7---10-5-7---10-12---7--10-5-7---10-12--|
A|3--3-1-1-1-3--3-1-1-1-3--3-1-1-1-3--3-1-1-1--5---8--3-5---8--10---5--8--3-5---8--10--|
E|---------------------------------------------------------------------------|

GTR I
e|---------------------------------------------|
B|---------------------------------------------|
G|---------------------------------------------|
D|7-9-10-7-9-10-7-9-10------7------7----10-9---|
A|---------------------8-10---8-10---10--------|
E|---------------------------------------------|  

GTR II
e|-------------------------------------|
B|-------------------------------------|
G|-------------------------------------|
D|-------------------------------------|
A|0-2-3-0-2-3-0-2-3-----0-----0--3-2---|
E|------------------1-3---1-3---3------| x6. GTR I Starts and GTR II comes in the third time.

Then quits the song.

| /  slide up
| \  slide down
| h  hammer-on
| p  pull-off
| ~  vibrato
| +  harmonic
| x  Mute note
===============================================================================
Comments