Judas Priest - Better By You Better Than Me Chords & Tabs

 

Better By You Better Than Me Chords & Tabs

Judas Priest Chords & Tabs

Version: 2 Type: Tab 0 ratings
1 star 2 stars 3 stars 4 stars 5 stars
comments

Better By You Better Than Me Tab

Standard tuning

Guitar One
E-----------------------------|
B-----------------------------|
G-0h2-2-2-2-2-5---------------|
D-----------------------------|
A-----------------------------|
E-----------------------------|

E-------------------------------|
B-------------------------------|
G--0h2-2-2-2-2p0----------------|
D----------------2-2p0----------|
A-----------------------0-------|
E-------------------------------|

E-----------------------------|
B-----------------------------|
G-0h2-2-2-2-2-5---------------|
D-----------------------------|
A-----------------------------|
E-----------------------------|

E-------------------------------|
B-------------------------------|
G--0h2-2-2-2-2p0----------------|
D----------------2-2p0----------|
A-----------------------0-------|
E-------------------------------|

Gtr 2
E--/17-17-15h17p17------------------|
B-----------------17-13-------------|
G-----------------------14----------|
D-----------------------------------|
A-----------------------------------|
E-----------------------------------|

E----------------------------------|
B----------------------------------|
G-----12-14-12h14p12---------------|
D-/14----------------12h14p12------|
A-----------------------------14\--|
E----------------------------------|

Gtr 1
E-------------------------------|
B-------------------------------|
G--0h2-2-2-2-2-2-5--------------|
D-------------------------------|
A-------------------------------|
E-------------------------------|

E-------------------------------|
B-------------------------------|
G-0h2-2-2-2-2p0-----------------|
D---------------2-2p0-----------|
A---------------------0---------|
E-------------------------------|

E-------------------------------|
B-------------------------------|
G-0h2-2-2-2-2-2-5---------------|
D-------------------------------|
A-------------------------------|
E-------------------------------|

E------------------------------|
B------------------------------|
G------------------------------|
D-3/5-5-5-5-8-5----------------|
A------------------------------|
E------------------------------|

E---------------------------|
B---------------------------|
G----7------9---------------|
D-7--7--10--9---------------|
A-7--5--10--7---------------|
E-5-----8-------------------|
¦
¦Gtr 2
E------------0--12--24--|
B-----------------------|
G-----------------------|
D-----------------------|
A-----------------------|
E-----------------------|

Gtr 1
E-------------------------------|
B-------------------------------|
G--0h2-2-2-2-2-2-5--------------|
D-------------------------------|
A-------------------------------|
E-------------------------------|

E-------------------------------|
B-------------------------------|
G-0h2-2-2-2-2p0-----------------|
D---------------2-2p0-----------|
A---------------------0---------|
E-------------------------------|

Gtr 1
E-------------------------------|
B-------------------------------|
G--0h2-2-2-2-2-2-5--------------|
D-------------------------------|
A-------------------------------|
E-------------------------------|

E-------------------------------|
B-------------------------------|
G-0h2-2-2-2-2p0-----------------|
D---------------2-2p0-----------|
A---------------------0---------|
E-------------------------------|

E-------------------------------|
B-------------------------------|
G-0h2-2-2-2-2-2-5---------------|
D-------------------------------|
A-------------------------------|
E-------------------------------|

E------------------------------|
B------------------------------|
G------------------------------|
D-3/5-5-5-5-8-5----------------|
A------------------------------|
E------------------------------|

E---------------------------|
B---------------------------|
G----7------9---------------|
D-7--7--10--9---------------|
A-7--5--10--7---------------|
E-5-----8-------------------|
¦
¦Gtr 2
E------------0--12--24--|
B-----------------------|
G-----------------------|
D-----------------------|
A-----------------------|
E-----------------------|

Gtr 1
E-------------------------------|
B-------------------------------|
G--0h2-2-2-2-2-2-5--------------|
D-------------------------------|
A-------------------------------|
E-------------------------------|

E-------------------------------|
B-------------------------------|
G-0h2-2-2-2-2p0-----------------|
D---------------2-2p0-----------|
A---------------------0---------|
E-------------------------------|

E----------------------------------|
B----------------------------------|
G---------------5-3----------------|
D-3/5--5-5-5-5--5-3----------------|
A-3/5--5-5-5-5--3-1----------------|
E-1/3--3-3-3-3---------------------|

E------------------------------|
B------------------------------|
G------------3-5---------------|
D-3/5-5-5-5--3-5---------------|
A-3/5-5-5-5--1-3---------------|
E-1/3-3-3-3--------------------|

[ Tab from: http://www.guitartabs.cc/tabs/j/judas_priest/better_by_you_better_than_me_tab_ver_2.html ]
E----------------------------------|
B----------------------------------|
G---------------5-3----------------|
D-3/5--5-5-5-5--5-3----------------|
A-3/5--5-5-5-5--3-1----------------|
E-1/3--3-3-3-3---------------------|

E------------------------------|
B------------------------------|
G------------3-5---------------|
D-3/5-5-5-5--3-5---------------|
A-3/5-5-5-5--1-3---------------|
E-1/3-3-3-3--------------------|

E--5--5---------------------------------------------|
B--6--6---------------------------------------------|
G--7--7----------------------7-7-7-7-7-7-7-7-7------|
D--7--7--8-8-8-8-8-7-7-7-7-7-7-7-7-7-7-7-7-7-7------|
A--5--5--8-8-8-8-8-7-7-7-7-7-5-5-5-5-5-5-5-5-5------|
E--------6-6-6-6-6-5-5-5-5-5------------------------|

E-------------------------------------------------|
B-------------------------------------------------|
G--------------------------7-7-7-7-7-7-7-7-7------|
D------8-8-8-8-8-7-7-7-7-7-7-7-7-7-7-7-7-7-7------|
A------8-8-8-8-8-7-7-7-7-7-5-5-5-5-5-5-5-5-5------|
E------6-6-6-6-6-5-5-5-5-5------------------------|

Gtr 1
E-------------------------------|
B-------------------------------|
G--0h2-2-2-2-2-2-5--------------|
D-------------------------------|
A-------------------------------|
E-------------------------------|

E-------------------------------|
B-------------------------------|
G-0h2-2-2-2-2p0-----------------|
D---------------2-2p0-----------|
A---------------------0---------|
E-------------------------------|

E-------------------------------|
B-------------------------------|
G-0h2-2-2-2-2-2-5---------------|
D-------------------------------|
A-------------------------------|
E-------------------------------|

E------------------------------|
B------------------------------|
G------------------------------|
D-3/5-5-5-5-8-5----------------|
A------------------------------|
E------------------------------|

E---------------------------|
B---------------------------|
G----7------9---------------|
D-7--7--10--9---------------|
A-7--5--10--7---------------|
E-5-----8-------------------|
¦
¦Gtr 2
E------------0--12--24--|
B-----------------------|
G-----------------------|
D-----------------------|
A-----------------------|
E-----------------------|

Gtr 1
E-------------------------------|
B-------------------------------|
G--0h2-2-2-2-2-2-5--------------|
D-------------------------------|
A-------------------------------|
E-------------------------------|

E-------------------------------|
B-------------------------------|
G-0h2-2-2-2-2p0-----------------|
D---------------2-2p0-----------|
A---------------------0---------|
E-------------------------------|

E----------------------------------|
B----------------------------------|
G---------------5-3----------------|
D-3/5--5-5-5-5--5-3----------------|
A-3/5--5-5-5-5--3-1----------------|
E-1/3--3-3-3-3---------------------|

E------------------------------|
B------------------------------|
G------------3-5---------------|
D-3/5-5-5-5--3-5---------------|
A-3/5-5-5-5--1-3---------------|
E-1/3-3-3-3--------------------|


E----------------------------------|
B----------------------------------|
G---------------5-3----------------|
D-3/5--5-5-5-5--5-3----------------|
A-3/5--5-5-5-5--3-1----------------|
E-1/3--3-3-3-3---------------------|

E------------------------------|
B------------------------------|
G------------3-5---------------|
D-3/5-5-5-5--3-5---------------|
A-3/5-5-5-5--1-3---------------|
E-1/3-3-3-3--------------------|

E--5--5---------------------------------------------|
B--6--6---------------------------------------------|
G--7--7----------------------7-7-7-7-7-7-7-7-7------|
D--7--7--8-8-8-8-8-7-7-7-7-7-7-7-7-7-7-7-7-7-7------|
A--5--5--8-8-8-8-8-7-7-7-7-7-5-5-5-5-5-5-5-5-5------|
E--------6-6-6-6-6-5-5-5-5-5------------------------|

E-------------------------------------------------|
B-------------------------------------------------|
G--------------------------7-7-7-7-7-7-7-7-7------|
D------8-8-8-8-8-7-7-7-7-7-7-7-7-7-7-7-7-7-7------|
A------8-8-8-8-8-7-7-7-7-7-5-5-5-5-5-5-5-5-5------|
E------6-6-6-6-6-5-5-5-5-5-----------------0------|

E-------------------------------------------------|
B-------------------------------------------------|
G--------------------------7-7-7-7-7-7-7-7-7------|
D------8-8-8-8-8-7-7-7-7-7-7-7-7-7-7-7-7-7-7------|
A------8-8-8-8-8-7-7-7-7-7-5-5-5-5-5-5-5-5-5------|
E------6-6-6-6-6-5-5-5-5-5------------------------|

E-------------------------------------------------|
B-------------------------------------------------|
G--------------------------7-7-7-7-7-7-7-7-7------|
D------8-8-8-8-8-7-7-7-7-7-7-7-7-7-7-7-7-7-7------|
A------8-8-8-8-8-7-7-7-7-7-5-5-5-5-5-5-5-5-5------|
E------6-6-6-6-6-5-5-5-5-5------------------------|

E-------------------------------------------------|
B-------------------------------------------------|
G--------------------------7-7-7-7-7-7-7-7-7------|
D------8-8-8-8-8-7-7-7-7-7-7-7-7-7-7-7-7-7-7------|
A------8-8-8-8-8-7-7-7-7-7-5-5-5-5-5-5-5-5-5------|
E------6-6-6-6-6-5-5-5-5-5------------------------|

Fade out on this final bar.

And thats the entire song!
Any comments please send them to Crazy_Cow_Cheese@hotmail.com
Comments