Judas Priest - A Touch Of Evil Chords & Tabs

 

A Touch Of Evil Chords & Tabs

Judas Priest Chords & Tabs

Version: 1 Type: Tab 0 ratings
1 star 2 stars 3 stars 4 stars 5 stars
comments

A Touch Of Evil Tab

i was mad to find out that this sit didnt have this song, great song by the priest
himself... any way i love this solo and i think it is right but is you have any
suggestions or comments or anything like that you can e-mail me at Death_bringer679@yahoo.com...
[ Tab from: http://www.guitartabs.cc/tabs/j/judas_priest/a_touch_of_evil_tab.html ]
e|------------------------------------------------------|
B|------------------------------------------------------|
G|------------------------------9~--7-5--4--------------|
D|-----------------9-7~----------------------7/\/\/\~---|
A|--7~------9-10-------------7--------------------------|
E|---------------8--------------------------------------|
   
e|------------------------------------------------------|
B|------------------------------------------------------|
G|------------------------------------------------------|
D|-----------------9-7~--------------------------9\/\/\~|
A|--7~------9-10-------------7~---9--10--9~-------------|
E|---------------8--------------------------------------|

e|------12~----10--------10-------------------------------|
B|----------------13-13-----13-12-10---13-12-10-12--------|
G|-9~-----------------------------------------------12-11-|
D|--------------------------------------------------------|
A|--------------------------------------------------------|
E|--------------------------------------------------------|

e|------17b(19)----15-------------------------------------|
B|--------------------17--17-15---------------------------|
G|------------------------------16-15-14-12-14-12~--------|
D|-14-----------------------------------------------------|
A|--------------------------------------------------------|
E|--------------------------------------------------------|

That seems about right...  ROCK ON!!
Comments