Judas Iscariot - Moonlight Butchery Chords & Tabs

 

Moonlight Butchery Chords & Tabs

Judas Iscariot Chords & Tabs

Version: 1 Type: Tab 0 ratings
1 star 2 stars 3 stars 4 stars 5 stars
comments

Moonlight Butchery Tab

   
===================================================
                  band: JUDAS ISCARIOT
                  song: DEATH'S HAMMER
                 album: Moonlight Butchery (2002)
             tabbed by: ^MorbiD^
                  data: 21.10.04
     shareware version: Release
===================================================
Thanks for correction to jantau@freenet.de (Correced riffs: 1a, 1b, 2)
?, []-im not sure about this.
Riff 1 a
|-------------------------------------------------|
|-------------------------------------------------|
|-----9-----9-----7-----9-----5-----5-----7-----4-|
|---9-----9-----9-----9-----5-----5-----7-----4---|
|-7-----7-----7-----7-----3-----3-----5-----2-----|
|-------------------------------------------------|
  E5    E5    ?     E5    C5    C5    D5    B5
[ Tab from: http://www.guitartabs.cc/tabs/j/judas_iscariot/moonlight_butchery_tab.html ]
Riff 1 b (jantau@freenet.de)
|-------------------------------------------------------|
|-----------------9-----10------------------------------|
|-----9-----9-------------------5-----5------4]---------|
|---9-----9-----9-----9-------5-----5------4---]--------|
|-7-----7-----7-----7-------3-----3------2------]-------|
|-------------------------------------------------------|
  E5    E5    ?     ?       C5    C5     D5      B5

Riff 1 b(lord_velzevul@bk.ru)
|---------------------------------------------------|
|-----------------7-----8---------------------------|
|-----9-----9-----------------5-----5-----4-----4-]-|
|---9-----9-----9-----9-----5-----5-----4-----4-]---|
|-7-----7-----7-----7-----3-----3-----2-----2-]-----|
|---------------------------------------------------|

Riff 2 [not sure]
|--------|--------|
|--------|--------|
|-----7--|------5-|
|---9----|----5---|
|-7------|--3-----|
|--------|--------|
 \__4x__/ \__4x__/

Riff 3 a
|-------------------------|
|-------------------------|
|-------------------------|
|-----2-----2-----?-----?-|
|---2-----2-----?-----?---|
|-0-----0-----?-----?-----|

Riff 3 b
|--------------------------|
|--------------------------|
|--------------------------|
|-----2-----2-----4-----5]-|
|---2-----2-----2-----3----|
|-0-----0-----2----[3------|

Riff 4 a (tremolo picked)
|-----------|
|-----------|
|-----------|
|-----[3----|
|-5-6----3]-|
|-----------|

Riff 4 b (tremolo picked)
|---------|
|---------|
|---------|
|-------3-|
|-5-6-3---|
|---------|
Comments