Judas Iscariot - Descent To The Abyss Chords & Tabs

 

Descent To The Abyss Chords & Tabs

Judas Iscariot Chords & Tabs

Version: 1 Type: Tab 0 ratings
1 star 2 stars 3 stars 4 stars 5 stars
comments

Descent To The Abyss Tab

Judas Iscariot
Descent To The Abyss
Tabbed by Joshua Coon 11/10/2001

Intro
                                   6x       
E|--------------------|-------------|--|
B|--------------------|-------------|--|
G|-------------12-----|--12--12-----|--|
D|-------10--10--10---|10--10--10---|--|
A|-101010--10------10-|----------10-|10|
E|--------------------|-------------|--|

Part 1
Tremelo Picked
E|--------------------------------------------------|
B|--------------------------------------------------|
G|--------------------------------------------------|
D|--------------------------------------------------|
A|11-10-11-10-------------12-11-12-13-12--8-7-8-7---|
E|------------10-11-10-11---------------------------|
[ Tab from: http://www.guitartabs.cc/tabs/j/judas_iscariot/descent_to_the_abyss_tab.html ]
Part 2
Tremelo Picked
E|------------------------|
B|------------------------|
G|------------------------|
D|------------------------|
A|-----------10-9---------|
E|10-8-11-10--------------|


Part 3
Tremelo Picked
E|------------------------------|
B|------------------------------|
G|--------------12--10--9-------|
D|10-9-10-12p10------------12---|
A|------------------------------|
E|------------------------------|

Part 4
Tremelo Picked
E|---------------------|
B|---------------------|
G|---------------------|
D|---13-12-9-8---------|
A|10-------------------|
E|---------------------|

Song Structure
Intro
Part 1 x4
Part 2 x4
Part 1 x4
Part 2 x4
Part 3 x4
Part 4 x8
Part 3 x4
Part 1 x6 start to fade at 4
Comments