Juanes - Soloekymosis Chords & Tabs

 

Soloekymosis Chords & Tabs

Juanes Chords & Tabs

Version: 1 Type: Tab 0 ratings
1 star 2 stars 3 stars 4 stars 5 stars
comments

Soloekymosis Tab

   
Esta es La original.
                         ***INTRO***
                                                         DO
E----------------------------|-------------------------|------------------------|
B--0---0------0---0---3-1-0--|-0---0-----0---0--3-1-0--|-1---1-----1---1--3/5-5-|
G----0---0------0----------0-|---0---0-----0---------0-|---0---0-----0----------|
D----------0-----------------|---------0---------------|---------3--------------|
A----------------------------|-------------------------|-3----------------------|
E--3-------------------------|-1-----------------------|------------------------|

E--5---5------3---3------2---2-------3---3---3---|
B---0---0------0---0------0---0-------0---0------|
G----0---0------0---0------0---0-------0---0--0--|
D------------------------------------------------|
A------------------------------------------------|
E--3----------3----------3-----------3-----------|

(A)
Estoy solo y pienso que...     Solo puedo ver allá       Donde la luna....

E----------------------------|-------------------------|------------------------|
B--0---0------0---0---3-1-0--|-0---0-----0---0--3-1-0--|-1---1-----1---1--3/5-5-|
G----0---0------0----------0-|---0---0-----0---------0-|---0---0-----0----------|
D----------0-----------------|---------0---------------|---------3--------------|
A----------------------------|-------------------------|-3----------------------|
E--3-------------------------|-1-----------------------|------------------------|

Es  un  horizonte  mas  que  alcanzar

E--5---5------3---3------2---2-------3---3---3---|
B---0---0------0---0------0---0-------0---0------|
G----0---0------0---0------0---0-------0---0--0--|
D------------------------------------------------|
A------------------------------------------------|
E--3----------3----------3-----------3-----------|


Paso a paso siempre boy         construyendo mi vida     Tropezando...

E----------------------------|-------------------------|------------------------|
B--0---0------0---0---3-1-0--|-0---0-----0---0--3-1-0--|-1---1-----1---1--3/5-5-|
G----0---0------0----------0-|---0---0-----0---------0-|---0---0-----0----------|
D----------0-----------------|---------0---------------|---------3--------------|
A----------------------------|-------------------------|-3----------------------|
E--3-------------------------|-1-----------------------|------------------------|

constantemente  con  lo  que  sueño

E--5---5------3---3------2---2-------3---3---3---|
B---0---0------0---0------0---0-------0---0------|
G----0---0------0---0------0---0-------0---0--0--|
D------------------------------------------------|
A------------------------------------------------|
E--3----------3----------3-----------3-----------|
[ Tab from: http://www.guitartabs.cc/tabs/j/juanes/soloekymosis_tab.html ]
(B)
MIm              DO             RE              Re
Es       imposible     de    lograrse...   Tal vez con ambición
---0----0----|-------------|--2----2----|--2h3--2--------|
-----0---0---|---1----1----|----3---3---|----------3-----|
------0---0--|-----0---0---|-----2---2--|-------------0--|
-------------|------2---2--|--0---------|----------------|
---2---------|--2----------|------------|----------------|
-------------|-------------|------------|----------------|
(Igual para la parte de abajo)

MIm          |       DO    |      RE    |       Re
es la       razón de la        vida...         noooo


(A)
Me pregunto como hallar
un espacio en que confiar
si es necesario
que mis palabras hablen por mi


(B)
<>

MIm    DO      RE
como poder aparentarlo

RE
si no lo puede ser

MIm        DO    RE
como expresarlo sin sentirlo

RE
eso no puede ser

MIm     DO       RE
es imposible de lograrse

RE
talvez con ambición

MIm     DO      RE
es la razón de la vida

RE
no oooo


(C)
<>

MIm               RE
es duro estar en soledad

MIm         RE
es reprimir el corazón...

MIm        RE
es caminar sin libertar

MI               RE           MIm   RE
es destruir... lo que no esta

MIm            RE     MIm   RE
mira mis ojos y veras

MIm          RE
es demasiado ser el mismo

e----------------------------------------------------------------------------|
B-8-10/12^-13~~-13--15-14-13-12----12-13/14^--13h14p13--13-14-16-17^--18-19^-|
G-------------------------------15-------------------------------------------|
D----------------------------------------------------------------------------|
A----------------------------------------------------------------------------|
E----------------------------------------------------------------------------|
Después sigue la escala!!

(B)
como poder aparentarlo
si no lo puede ser
como expresarlo sin sentirlo
eso no puede ser
es imposible de lograrse.. talvez con ambición
es la razón de la vida no

(C)
es duro estar en soledad
es reprimir el corazón...
es caminar sin libertad
es destruir... lo que no esta
mira mis ojos y veras
es demasiado ser el mismo


                              ***FINAL***
                                                          DO
E----------------------------|-------------------------|------------------------|
B--0---0------0---0---3-1-0--|-0---0-----0---0--3-1-0--|-1---1-----1---1--3/5-5-|
G----0---0------0----------0-|---0---0-----0---------0-|---0---0-----0----------|
D----------0-----------------|---------0---------------|---------3--------------|
A----------------------------|-------------------------|-3----------------------|
E--3-------------------------|-1-----------------------|------------------------|

E--5---5------3---3------2---2------------|
B---0---0------0---0------0---0--------1--|
G----0---0------0---0------0---0------0---|
D------------------------------------2----|
A-----------------------------------3-----|
E--3----------3----------3---------0------|
Comments