Juanes - Para Tu Amor Chords & Tabs

 

Para Tu Amor Chords & Tabs

Juanes Chords & Tabs

Version: 1 Type: Tab 0 ratings
1 star 2 stars 3 stars 4 stars 5 stars
comments

Para Tu Amor Tab

asi les va el solo! disfrutalo!!
[ Tab from: http://www.guitartabs.cc/tabs/j/juanes/para_tu_amor_tab.html ]
e|---------------------------------------------------------------------|
B|---------------------------------------------------------------------|
G|---------------------------------------------------------------------|
D|-------------------------------------------------15s17-15-16-14-13---|
A|-14s15-13-11---11-13-14-15-18--15-16-17-18-19-20---------------------|
E|-------------13------------------------------------------------------|


e|----------------------------------------------------|
B|----------------------------------------------------|
G|-15-13-12-13----------------------------------------|
D|-------------13--10----10-11-10-8--6-5-6-5-3-1-3-1--|
A|--------------------11------------------------------|
E|----------------------------------------------------|
Comments