Juanes - Luna Chords & Tabs

 

Luna Chords & Tabs

Juanes Chords & Tabs

Version: 1 Type: Tab 0 ratings
1 star 2 stars 3 stars 4 stars 5 stars
comments

Luna Tab

                               Juanes
                               "Luna"


[ Tab from: http://www.guitartabs.cc/tabs/j/juanes/luna_tab.html ]
e|-----9--9-10--10-10-10-7--------------9--9-10--10-10-10-7---------|
B|--------------------------10-10-10-----------------------10-10-10-|
G|------------------------------------------------------------------|
D|------------------------------------------------------------------|
A|------------------------------------------------------------------|
E|------------------------------------------------------------------|

e|--9--9-10--10-10-10-7------------------10--------------------|
B|----------------------10-10-10---9-8-8----10--10-10-10-------|
G|-------------------------------------------------------------|
D|-------------------------------------------------------------|
A|-------------------------------------------------------------|
E|-------------------------------------------------------------|
Comments