Juanes - La Paga Chords & Tabs

 

La Paga Chords & Tabs

Juanes Chords & Tabs

Version: 1 Type: Tab 0 ratings
1 star 2 stars 3 stars 4 stars 5 stars
comments

La Paga Tab

"Standard Tunning"
This is basically the whole song repeat it until u get tired!

1|-5-5-5-5-|-5-5-|-5-5-|
2|-5-5-5-5-|-6-6-|-5-5-|
3|-5-5-5-5-|-5-5-|-7-7-|
4|-5-5-5-5-|-5-5-|-5-7-|
5|---------|-----|-----|
6|---------|-----|-----|
[ Tab from: http://www.guitartabs.cc/tabs/j/juanes/la_paga_tab.html ]
Intro:
1|----------------------------------|
2|-3\6--3-5-6-8-6-3-3\5-10-10-3-5---|
3|--------------------------------3-|
4|----------------------------------|
5|----------------------------------|
6|----------------------------------|

Solo:
1|------------------------------------------------------|
2|-------5-------------5--------------------------------|
3|-5-5-7---7-5----5-7---7-5-----------------------------|
4|-7-----------7------------7-5--7-5-7-5-0-(incomplete)-|
5|------------------------------------------------------|
6|------------------------------------------------------|

(Feel free to make some adjustments to it but i think it sound all right)
GUITAR ROCKS!
Comments