Juana - Goodbye Chords & Tabs

 

Goodbye Chords & Tabs

Juana Chords & Tabs

Version: 2 Type: Tab

Goodbye Tab

   
Title       : Goodbye
Artist      : Juana

Ear tabber  : Walter Michael De la Cruz 
E-mail add 1: Walterfdelacruz@yahoo.com
E-mail add 2: Michaelfdelacruz@yahoo.com 
Contact no  : 09224012464
School      : Saint Louis University, Baguio city
Time Elapsed: 5:48 PM - 6:02 PM
Date	    : January 2, 2006


This song goes to Karla pandacan. Eto na po Yung tab na hinahanap mo baby.
Sana po magustuhan mo

Legend

. BAckward strum


Intro:
              .             .
e|----------------|-------------|------------|
B|-----------12---|---------10--|------------|
G|--------11-11---|------9--9---|-7-7--------|
D|-----12----12---|---11----11--|-7-7--------|  
A|--10------------|-9-----------|------------|
E|----------------|-------------|-7-7--------|

  
      .             .
e|----------------|-------------|------------|
B|-----------12---|---------10--|------------|
G|--------11-11---|------9--9---|-7-7--------|
D|-----12----12---|---11----11--|-7-7--------|  
A|--10------------|-9-----------|------------|
E|----------------|-------------|-7-7--------|

Verse:
       .      .   .    .      
e|------------2---2-------|
B|-----3---t------3-t--3--|
G|-----0---a--------a--0--|
D|-----0---p--------p-----|  
A|-----2------------------|
E|-3----------3-----------|
  Didn't mean 2 hurt u badly
   
    .               .
e|-------------|----------------|
B|---2--t------|--3--3-t-3------|
G|---2--a------|--2--2-a-2------|
D|---2--p------|-------p--------|
A|-------------|--2------2------|
E|-2-----------|----------------|
  & dont think that im fooling around with you

       .      .   .    .      
e|------------2---2-------|
B|-----3---t------3-t--3--|
G|-----0---a--------a--0--|
D|-----0---p--------p-----|  
A|-----2------------------|
E|-3----------3-----------|
  So sorry 4 d tym uv wasted on me,

    .               
e|-------------|----------------|
B|---2--t------|--3-------------|
G|---2--a------|--2-------------|
D|---2--p------|----------------|
A|-------------|--2-------------|
E|-2-----------|----------------|
so sorry for d things that u went thru

       .      .   .    .      
e|------------2---2-------|
B|-----3---t------3-t--3--|
G|-----0---a--------a--0--|
D|-----0---p--------p-----|  
A|-----2------------------|
E|-3----------3-----------|
  But I know that the problem's within me
    .               
e|-------------|----------------|
B|---2--t------|--3-------------|
G|---2--a------|--2-------------|
D|---2--p------|----------------|
A|-------------|--2-------------|
E|-2-----------|----------------|
 You're so nice but your love don't deserve me

       .      .   .    .      
e|------------2---2-------|
B|-----3---t------3-t--3--|
G|-----0---a--------a--0--|
D|-----0---p--------p-----|  
A|-----2------------------|
E|-3----------3-----------|
  Or maybe I'm just so scared to fall

    .               
e|-------------|----------------|
B|---2--t------|--3-3-----------|
G|---2--a------|--2-2-----------|
D|---2--p------|----------------|
A|-------------|--2-2-----------|
E|-2-----------|----------------|
 in love         again


       .      .         
e|------------2--------|
B|-----3---t-----------|
G|-----0---a-----------|
D|-----0---p-----------|  
A|-----2---------------|
E|-3----------3--------|
  I can still remember the days

    .               
e|-------------|----------------|
B|---2--t------|--3-------------|
g|---2--a------|--2-------------|
D|---2--p------|----------------|
A|-------------|--2-------------|
E|-2-----------|----------------|
  many times, I've been hurt  

       .      .         
e|------------2--------|
B|-----3---t-----------|
G|-----0---a-----------|
D|-----0---p-----------|  
A|-----2---------------|
E|-3----------3--------|
 So much stress I thought in our relationship
    .               
e|-------------|----------------|
B|---2--t------|--3-3-----------|
G|---2--a------|--2-2-----------|
D|---2--p------|----------------|
A|-------------|--2-2-----------|
E|-2-----------|----------------|
 So much suffering - and the pain still remains

       .      .         
e|------------2--------|
B|-----3---t-----------|
G|-----0---a-----------|
D|-----0---p-----------|  
A|-----2---------------|
E|-3----------3--------|
  You know I like you but I don't wanna take the risk

    .               
e|-------------|----------------|
B|---2--t------|--3-------------|
g|---2--a------|--2-------------|
D|---2--p------|----------------|
A|-------------|--2-------------|
E|-2-----------|----------------|
  So confusing I don't know how to deal with it

       .      .         
e|------------2--------|
B|-----3---t-----------|
G|-----0---a-----------|
D|-----0---p-----------|  
A|-----2---------------|
E|-3----------3--------|
  Need sometime for a while before I
    .               
e|-------------|----------------|
B|---2--t------|--3-3-----------|
G|---2--a------|--2-2-----------|
D|---2--p------|----------------|
A|-------------|--2-2-----------|
E|-2-----------|----------------|
   give my heart away



Chorus:

e|-------------------------------------|----|------------------|
B|-----------12------12-----12---------|-10-|------------------|
G|------11------11-----11-----11-------|----|-7-7--------------|
D|----12----------12-----12-----12-----|----|-7-7--------------|  
A|-10----------------------------------|-9--|------------------|
E|-------------------------------------|----|-7-7--------------|
   Don't say goodb-----y--------e  dont say goodbye


e|-------------------------------------|----|------------------|
B|-----------12------12-----12---------|-10-|------------------|
G|------11------11-----11-----11-------|----|-7-7--------------|
D|----12----------12-----12-----12-----|----|-7-7--------------|  
A|-10----------------------------------|-9--|------------------|
E|-------------------------------------|----|-7-7--------------|
  I Need sometime for a while before I give my heart away

e|-------------------------------------|----|------------------|
B|-----------12------12-----12---------|-10-|------------------|
G|------11------11-----11-----11-------|----|-7-7--------------|
D|----12----------12-----12-----12-----|----|-7-7--------------|  
A|-10----------------------------------|-9--|------------------|
E|-------------------------------------|----|-7-7--------------|
   Don't say goodb-----y--------e  dont say goodbye

       .      .         
e|------------2--------|
B|-----3---t-----------|
G|-----0---a-----------|
D|-----0---p-----------|  
A|-----2---------------|
E|-3----------3--------|
 Need sometime for a while before I give my heart away
    .               
e|-------------|----------------|
B|---2--t------|--3-3-----------|
G|---2--a------|--2-2-----------|
D|---2--p------|----------------|
A|-------------|--2-2-----------|
E|-2-----------|----------------|
  I give my heart away


Verse 3: The same plucking just like in verse 1
[ Tab from: http://www.guitartabs.cc/tabs/j/juana/goodbye_tab_ver_2.html ]
GM7
Now I know I wasn't thinking before
F#m7		       Bm
That's why I'm always ending up with Mr. Wrong
GM7
Learning from the past don't wanna make a mistake
F#m7		    Bm
You could be Mr. Right or could be fake
GM7
You know I like you but I don't wanna take the risk
F#m7		Bm
So confusing I don't know how to deal with it
GM7                                F#m7          Bm(2x)
Need sometime for a while before I give my heart away

Chorus:

e|-------------------------------------|----|------------------|
B|-----------12------12-----12---------|-10-|------------------|
G|------11------11-----11-----11-------|----|-7-7--------------|
D|----12----------12-----12-----12-----|----|-7-7--------------|  
A|-10----------------------------------|-9--|------------------|
E|-------------------------------------|----|-7-7--------------|
   Don't say goodb-----y--------e  dont say goodbye


e|-------------------------------------|----|------------------|
B|-----------12------12-----12---------|-10-|------------------|
G|------11------11-----11-----11-------|----|-7-7--------------|
D|----12----------12-----12-----12-----|----|-7-7--------------|  
A|-10----------------------------------|-9--|------------------|
E|-------------------------------------|----|-7-7--------------|
  I Need sometime for a while before I give my heart away

e|-------------------------------------|----|------------------|
B|-----------12------12-----12---------|-10-|------------------|
G|------11------11-----11-----11-------|----|-7-7--------------|
D|----12----------12-----12-----12-----|----|-7-7--------------|  
A|-10----------------------------------|-9--|------------------|
E|-------------------------------------|----|-7-7--------------|
   Don't say goodb-----y--------e  dont say goodbye

       .      .         
e|------------2--------|
B|-----3---t-----------|
G|-----0---a-----------|
D|-----0---p-----------|  
A|-----2---------------|
E|-3----------3--------|
 Need sometime for a while before 
    .               
e|-------------|----------------|
B|---2--t------|--3-3-----------|
G|---2--a------|--2-2-----------|
D|---2--p------|----------------|
A|-------------|--2-2-----------|
E|-2-----------|----------------|
  I give my heart away


Adlib:

h - hammer
/ - slide down


e|-----------7h9-10-9-------------|
B|---------7---------5h7-----7----|
G|-----------------------7h9--9-9-|
D|--------------------------------|
A|--------------------------------|
E|-5-3-2-0------------------------|

e|-----------7h9-9/10-9-10/12--13/14-12-10h12-10-10h12-------|
b|---------7-------------------------------------------------|
G|-----------------------------------------------------------|
D|-----------------------------------------------------------|
A|-----------------------------------------------------------|
E|-5-3-2-0---------------------------------------------------|


e|----------7-9-10-9------------------|
B|--------7---------7-----7-----------|
G|--------------------7h9---9-7h9p7-9-|
D|------------------------------------|
A|------------------------------------|
E|-5-3-2-0----------------------------|


(medyo may sabit dito sa last.hehe)
e|------------7-9-9/10-9---------------------------9-9-9-10-10-10----|
B|----------7-----------7---8-8-8-10-10-10-12-12-12------------------|
G|-----------------------7h9-----------------------------------------|
D|-------------------------------------------------------------------|
A|-------------------------------------------------------------------|
E|-5--3-2-0----------------------------------------------------------|

Chorus:

e|-------------------------------------|----|------------------|
B|-----------12------12-----12---------|-10-|------------------|
G|------11------11-----11-----11-------|----|-7-7--------------|
D|----12----------12-----12-----12-----|----|-7-7--------------|  
A|-10----------------------------------|-9--|------------------|
E|-------------------------------------|----|-7-7--------------|
   Don't say goodb-----y--------e  dont say goodbye


e|-------------------------------------|----|------------------|
B|-----------12------12-----12---------|-10-|------------------|
G|------11------11-----11-----11-------|----|-7-7--------------|
D|----12----------12-----12-----12-----|----|-7-7--------------|  
A|-10----------------------------------|-9--|------------------|
E|-------------------------------------|----|-7-7--------------|
  I Need sometime for a while before I give my heart away

e|-------------------------------------|----|------------------|
B|-----------12------12-----12---------|-10-|------------------|
G|------11------11-----11-----11-------|----|-7-7--------------|
D|----12----------12-----12-----12-----|----|-7-7--------------|  
A|-10----------------------------------|-9--|------------------|
E|-------------------------------------|----|-7-7--------------|
   Don't say goodb-----y--------e  dont say goodbye

       .      .         
e|------------2--------|
B|-----3---t-----------|
G|-----0---a-----------|
D|-----0---p-----------|  
A|-----2---------------|
E|-3----------3--------|
 Need sometime for a while before 
    .               
e|-------------|----------------|
B|---2--t------|--3-3-----------|
G|---2--a------|--2-2-----------|
D|---2--p------|----------------|
A|-------------|--2-2-----------|
E|-2-----------|----------------|
  I give my heart away

Chorus:

e|-------------------------------------|----|------------------|
B|-----------12------12-----12---------|-10-|------------------|
G|------11------11-----11-----11-------|----|-7-7--------------|
D|----12----------12-----12-----12-----|----|-7-7--------------|  
A|-10----------------------------------|-9--|------------------|
E|-------------------------------------|----|-7-7--------------|
   Don't say goodb-----y--------e  dont say goodbye


e|-------------------------------------|----|------------------|
B|-----------12------12-----12---------|-10-|------------------|
G|------11------11-----11-----11-------|----|-7-7--------------|
D|----12----------12-----12-----12-----|----|-7-7--------------|  
A|-10----------------------------------|-9--|------------------|
E|-------------------------------------|----|-7-7--------------|
  I Need sometime for a while before I give my heart away

e|-------------------------------------|----|------------------|
B|-----------12------12-----12---------|-10-|------------------|
G|------11------11-----11-----11-------|----|-7-7--------------|
D|----12----------12-----12-----12-----|----|-7-7--------------|  
A|-10----------------------------------|-9--|------------------|
E|-------------------------------------|----|-7-7--------------|
   Don't say goodb-----y--------e  dont say goodbye

Ending:
       .      .         
e|------------2--------|
B|-----3---t-----------|
G|-----0---a-----------|
D|-----0---p-----------|  
A|-----2---------------|
E|-3----------3--------|

     .               
e|-------------|----------------|
B|---2--t------|--3-3-----------|
G|---2--a------|--2-2-----------|
D|---2--p------|----------------|
A|-------------|--2-2-----------|
E|-2-----------|----------------|

       .      .         
e|------------2--------|
B|-----3---t-----------|
G|-----0---a-----------|
D|-----0---p-----------|  
A|-----2---------------|
E|-3----------3--------|

     .               
e|-------------|----------------|
B|---2--t------|--3-3-----------|
G|---2--a------|--2-2-----------|
D|---2--p------|----------------|
A|-------------|--2-2-----------|
E|-2-----------|----------------|
  


For comments send me a message in Friendster. 

E-mail add 1: Walterfdelacruz@yahoo.com
E-mail add 2: Michaelfdelacruz@yahoo.com 

And u Can also add me as your friend Or send me a testimonial.hehehe
God bless!